» » »

Blonde Rebelion Tabs (ver.1)

Artists:  A B C D E F G H I J K L M N O P Q R S T U V W X Y Z # 

Blonde Rebelion Tabs (ver.1)

The Pretty Reckless
Rating:
0/5 (0 votes)

Hard to play? Try these video lessons and learn fast.
                @Lucy_Riot
-Artist: The Pretty Reckless
-Song: ''Blonde Rebelion''
-Guitar Tunning: Standard

-Note: I show you the chords, but for the strumming pattern check out the song 
(Aquí os muestro los acordes, pero para saber cuantas veces tocar cada acorde y el 

-----Tunning: Drop D-----

Intro:

|---------------------[
|---------------------[
|---------------------[   
|--7--10-----2--10----[   x3
|--7--10-----2--10----[
|--7--10-----2--10----[

|---------------------[
|---------------------[
|---------------------[   
|--6--5---------------[
|--6--5---------------[
|--6--5---------------[


Verse 1: ''Hurry baby and turn the knob...'' 


|---------------------[
|---------------------[
|---------------------[   
|--7--10-----2--10----[   x3
|--7--10-----2--10----[
|--7--10-----2--10----[
                                     
|---------------------[
|---------------------[
|---------------------[   
|--6--5---------------[
|--6--5---------------[
|--6--5---------------[

---->x2<------


Chorus: ''Cause all I am is a blonde rebellion...''

|-------------------------[
|-------------------------[
|-------------------------[   
|--10--2--7---6--5--------[
|--10--2--7---6--5--------[
|--10--2--7---6--5--------[

''Woah oh oh oh, woah oh oh oh''

|---------------------[
|---------------------[
|---------------------[   
|--7--10-----2--10----[   x4
|--7--10-----2--10----[
|--7--10-----2--10----[


Verse 2: ''You don't know me 'til you've seen me cry...''

|---------------------[
|---------------------[
|---------------------[   
|--7--10-----2--10----[   x3
|--7--10-----2--10----[
|--7--10-----2--10----[
                                     
|---------------------[
|---------------------[
|---------------------[   
|--6--5---------------[
|--6--5---------------[
|--6--5---------------[


Chorus 2 : ''Cause all I am is a blonde rebellion...''

|-------------------------[
|-------------------------[
|-------------------------[   
|--10--2--7---6--5--------[
|--10--2--7---6--5--------[
|--10--2--7---6--5--------[

''Woah oh oh oh, woah oh oh oh''

|---------------------[
|---------------------[
|---------------------[   
|--7--10-----2--10----[   x4
|--7--10-----2--10----[
|--7--10-----2--10----[



Outro: ''Come baby, come baby, come baby, come''


|------------[
|------------[
|--14--------[
|--x---------[
|--12--------[
|------------[

''Come baby, come baby, come baby, C'MON!!!''

|---------------[
|---------------[
|--17---16------[
|---x----x------[ x2
|--15---14------[
|---------------[

Chorus 2 : ''All I am is a blonde rebellion...''

|-------------------------[
|-------------------------[
|-------------------------[   x2
|--10--2--7---6--5--------[
|--10--2--7---6--5--------[
|--10--2--7---6--5--------[

''Woah oh oh oh, woah oh oh oh''

|---------------------[
|---------------------[
|---------------------[   
|--7--10-----2--10----[   x3   END!!!
|--7--10-----2--10----[
|--7--10-----2--10----[

xoxo
            
Hard to play? Try these video lessons and learn fast. | Correct




comments powered by Disqus
↑ Back to top | Tablatures and chords are parodies/interpretations of the original songs. You may use it for private study, scholarship, research or language learning purposes only