» » »

One More Time Bass tabs (ver.1)

Artists:  A B C D E F G H I J K L M N O P Q R S T U V W X Y Z # 

One More Time Bass tabs (ver.1)

Pretenders
Rating:
0/5 (0 votes)

Hard to play? Try these video lessons and learn fast.
                Verse (x3)
G |------------------------------------------------------|
D |------------------------------------------------------|
A |-2-----4----------------------------------------------|
E |----4-----4-------------------------------------------|

Prechorus/Chorus
G |------------------------------------------------------|
D |------------------------------------------------------|
A |--------2---------------2-----0-----------------------|
E |-3~--2----0-2--2-2-2-2~--2-02--2-2-2------------------|

-verse-
-prechorus/chorus-
-bridge: don’t play-
-prechorus/chorus-

Watch for timing. Some notes are more spread out than others. Especially in the 
Aside from that, this should be pretty straight forward.
            
Hard to play? Try these video lessons and learn fast. | Correct




comments powered by Disqus
↑ Back to top | Tablatures and chords are parodies/interpretations of the original songs. You may use it for private study, scholarship, research or language learning purposes only