» » »

Nails In The Road Bass tabs (ver.1)

Artists:  A B C D E F G H I J K L M N O P Q R S T U V W X Y Z # 

Nails In The Road Bass tabs (ver.1)

Pretenders
Rating:
0/5 (0 votes)

Tabs too difficult? Try these video lessons and learn fast.
                Verse:
G|--------------------------------||
D|-3-3-x--2-2--0--0-0----2-2------||
A|------------------------0-------||
E|--------------------------------|| -at first: come in with drums (wait two measures)

Prechorus:
G|--------------------------------------------------------------------||
D|--------------------------------------------------------------------||
A|-3-3-3-3-3-3------------3-3-3-3-3-3-------------3-3-3-3-3-3---------||
E|------------3-3-3-3-3-3-------------3-3-3-3-3-3-------------3-3-3-3-3||

Chorus:
G|--------------------------------------------------------------||
D|-3-3-3-3-2-2-2-2-0-0-0-0--------------------------------------||
A|-------------------------------3-3-3-3-1-1-1-1----------------||
E|---------------------------------------------------1-1-1-1----|| 


Bridge:
G|------------------------------------------------------------||
D|------------1-0---------------------------------------------||
A|--3-0-1-3------3-0------------------------------------------||
E|-----------------------3-3-0-1-2-3--------------------------||   x6

 G|-------------------------------||
D|--------------------------------||
A|--------------------------------||
E|-1-1-1-1-1-3-3-3-3-3------------|| 
            
Tabs too difficult? Try these video lessons and learn fast.




comments powered by Disqus
↑ Back to top | Tablatures and chords are parodies/interpretations of the original songs. You may use it for private study, scholarship, research or language learning purposes only