» » »

Don't Get Me Wrong Bass tabs (ver.1)

Artists:  A B C D E F G H I J K L M N O P Q R S T U V W X Y Z # 

Don't Get Me Wrong Bass tabs (ver.1)

Pretenders
Rating:
0/5 (0 votes)

Tabs too difficult? Try these video lessons and learn fast.
                Pretenders - Don't get me wrong
(standard tuning EADG; common time 4/4; 205bpm)



|---------|---------------|---------|---------|---------|---------------|---------|
|---------|---------------|---------|---------|---------|---------------|---------|
|-3-3-3-3-|-3-3-3-0--3-0--|-3-3-3-3-|---------|---------|---------------|---------|
|---------|---------------|---------|-0-0-3-3-|-5-5-5-5-|-5-5-5-3--5-3--|-5-5-5-5-|
  1 2 3 4   1 2 3 di 4 di                                 1 2 3 di 4 di

|-----------|---------|-----------|---------|-----------|-------(4x)|
|-----------|---------|-----------|---------|-----------|*---------*|
|-------3---|-5-5-5-5-|-5-5-5-5-3-|-5-5-5-5-|-5-5-5-5---|*---------*|
|-5-5-5---5-|---------|-----------|---------|---------3-|--3-3-3-3--|
  1 2 3 4 di            1 2 3 4 di            1 2 3 4 di

|---------|---------------|---------|---------|---------|---------------|---------|
|---------|---------------|---------|---------|---------|---------------|---------|
|-3-3-3-3-|-3-3-3-0--3-0--|-3-3-3-3-|---------|---------|---------------|---------|
|---------|---------------|---------|-0-0-3-3-|-5-5-5-5-|-5-5-5-3--5-3--|-5-5-5-5-|
  1 2 3 4   1 2 3 di 4 di                                 1 2 3 di 4 di

|---------|---------|--------------|---------|-----------|-------(4x)|
|---------|---------|--------------|---------|-----------|*---------*|
|-3-3-4-4-|-5-5-5-5-|-5-5-5-3--5-3-|-5-5-5-5-|-5-5-5-5---|*---------*|
|---------|---------|--------------|---------|---------3-|--3-3-3-3--|
                      1 2 3 di 4 di            1 2 3 4 di

|---------|---------------|---------|----------|----------|---------|---------|
|---------|---------------|---------|*---------|---------*|---------|---------|
|-3-3-3-3-|-3-3-3-0--3-0--|-3-3-3-3-|*---------|-----3-3-*|---------|-5-5-5-5-|
|---------|---------------|---------|--0-0-3-3-|-5-5------|-0-0-3-3-|---------|
  1 2 3 4   1 2 3 di 4 di                                 

|--------------|-----------|-------(4x)|
|--------------|*---------*|*---------*|
|-5-5-5-3--5-3-|*-5-5-5-5-*|*---------*|
|--------------|-----------|--3-3-3-3--|
  1 2 3 di 4 di

|---------|---------------|---------|---------|---------|---------------|---------|
|---------|---------------|---------|---------|---------|---------------|---------|
|-3-3-3-3-|-3-3-3-0--3-0--|-3-3-3-3-|---------|---------|---------------|---------|
|---------|---------------|---------|-0-0-3-3-|-5-5-5-5-|-5-5-5-3--5-3--|-5-5-5-5-|
  1 2 3 4   1 2 3 di 4 di                                 1 2 3 di 4 di

|-----------|---------|--------------|---------|-----------|-------(4x)|
|-----------|---------|--------------|---------|-----------|*---------*|
|-------3---|-5-5-5-5-|-5-5-5-3--5-3-|-5-5-5-5-|-5-5-5-5---|*---------*|
|-5-5-5---5-|---------|--------------|---------|---------3-|--3-3-3-3--|
  1 2 3 4 di            1 2 3 di 4 di            1 2 3 4 di

|---------|---------------|---------|----------|----------|---------|---------|
|---------|---------------|---------|*---------|---------*|---------|---------|
|-3-3-3-3-|-3-3-3-0--3-0--|-3-3-3-3-|*---------|-----3-3-*|---------|-5-5-5-5-|
|---------|---------------|---------|--0-0-3-3-|-5-5------|-0-0-3-3-|---------|
  1 2 3 4   1 2 3 di 4 di                                 

|-----------|---------|---------|-------(4x)|
|-----------|---------|---------|*---------*|
|-5-5-5-5-3-|-5-5-5-5-|---------|*---------*|
|-----------|---------|-0-0-2-2-|--3-3-3-3--|
  1 2 3 4 di

|---------|---------------|---------|----------|----------|---------|---------|
|---------|---------------|---------|*---------|---------*|---------|---------|
|-3-3-3-3-|-3-3-3-0--3-0--|-3-3-3-3-|*---------|-----3-3-*|---------|-5-5-5-5-|
|---------|---------------|---------|--0-0-3-3-|-5-5------|-0-0-3-3-|---------|
  1 2 3 4   1 2 3 di 4 di                                 

|---------|-----------|---------|--------------|-----------|
|---------|*---------*|---------|--------------|*---------*|
|---------|*---------*|-3-3-3-3-|-3-3-3-0--3-0-|*-3-3-3-3-*|
|-0-0-2-2-|--3-3-3-3--|---------|--------------|-----------|
                                  1 2 3 di 4 di

|---------|---------|---------|---------|---------|---------|---------|-----------|
|---------|---------|---------|-----5-2-|---------|---------|---------|----0--2-1-|
|-5-------|-----3-4-|-5-------|---------|-3-------|-----3-4-|-5-------|-----------|
|---0-1-3-|---------|---0-1-3-|---------|---0-1-3-|---------|---0-1-3-|-----------|
                                                                           di 3 4
|---------|---------|---------|-r-|-------(4x)|
|---------|---------|---------|-e-|*---------*|
|-5-------|-----3-4-|-5-------|-s-|*---------*|
|---0-1-3-|---------|---0-1-3-|-t-|--3-3-3-3--|

|----------|----------|---------|---------|---------|---------|----------|----------|
|*---------|---------*|---------|---------|---------|---------|*---------|---------*|
|*-3-3-----|---------*|-----3-3-|---------|-----3-3-|---------|*-5-5-----|-----3-3-*|
|------0-0-|-3-3-5-5--|-5-5-----|-0-0-3-3-|-5-5-----|-0-0-3-3-|------0-0-|-5-5------|

|----------|-------------|
|*---------|-----2------*|
|*-----3-3-|-5-5---0--3-*|
|--3-3-----|-------------|
             1 2 3 di 4

|----------|----------|---------|---------|---------|---------|----------|----------|
|*---------|---------*|---------|---------|---------|---------|*---------|---------*|
|*-3-3-----|---------*|-----3-3-|---------|-----3-3-|---------|*-5-5-----|-----3-3-*|
|------0-0-|-3-3-5-5--|-5-5-----|-0-0-3-3-|-5-5-----|-0-0-3-3-|------0-0-|-5-5------|

|----------|-------------|
|*---------|-----2------*|
|*-----3-3-|-5-5---0--3-*|
|--3-3-----|-------------|
             1 2 3 di 4

|----|----|----|-----|----|----|----|-----|----|----|----|----|----|----|----|
|----|----|----|-----|----|----|----|-----|----|----|----|----|----|----|----|
|-3--|----|-3--|-----|----|----|----|---3-|-5--|----|-5--|----|----|--5-|----|
|----|--3-|----|-0-3-|-5--|--0-|-5--|-5---|----|--5-|----|--5-|-3--|----|-3--|
  1     3   1    1 3   1     3   1    1 3   1     3   1     3   1     3   1

|----------|----------|---------|---------|---------|---------|---------|---------|
|*---------|---------*|---------|---------|---------|---------|---------|---------|
|*-3-3-----|---------*|-----3-3-|---------|-----3-3-|---------|-5-5-----|-----5-5-|
|------0-0-|-3-3-5-5--|-5-5-----|-0-0-3-3-|-5-5-----|-0-0-3-3-|-----0-0-|-3-3-----|

|-----------|---------|---------|---------|---------|---------|------------|-----------|
|*---------*|---------|---------|---------|---------|---------|------------|*---------*|
|*---------*|-----3-3-|---------|-----2-2-|-3-3-4-4-|-5-5-----|-----3-0--3-|*---------*|
|--3-3-3-3--|-5-5-----|-0-0-3-3-|-5-5-----|---------|-----0-0-|-5-5--------|--3-3-3-3--|
                                                                1 2 3 di 4
|----------|------(3x)|---------|
|*---------|---------*|---------|
|*-----3-3-|---------*|---------|
|--5-5-----|-0-0-3-3--|-5-------|
            
Tabs too difficult? Try these video lessons and learn fast.


comments powered by Disqus
↑ Back to top | Tablatures and chords are parodies/interpretations of the original songs. You may use it for private study, scholarship, research or language learning purposes only