» » »

Recycled Air Tabs (ver.2)

Artists:  A B C D E F G H I J K L M N O P Q R S T U V W X Y Z # 

Recycled Air Tabs (ver.2)

Postal Service
Rating:
0/5 (0 votes)
Tabs too difficult? Try these video lessons and learn fast.
                Recycled Air by The Postal Service
Capo - 5th

      C     Fmaj7   C

e|-----------0----------0-----------0----------|
B|-----1-1-3------1-1-3-------1-1-3---3-1-0----|
G|---------------------------------------------|
D|-------------3-3-----------------------------|
A|---3--------------------3-3------------------|
E|---------------------------------------------|

C            F
I take a breath
C                                G
And hold the air until there's nothing left
C              F
I'm feeling green
C                       G
Like teenage lovers between the sheets


   Ba Ba Ba Ba  Ba Ba Ba Ba   Ba Ba Ba Ba Ba Ba Ba
e|-----------------------------------------------|
B|----------3------------3--------------3--------|
G|-3--3--5------3--3--5------3--3--5-------5--3-2|
D|-----------------------------------------------|
A|-----------------------------------------------|
E|-----------------------------------------------|

C                       F
Knuckles clenched to white
C                        G
As the landing gear retract for flight
C               F
My heads a balloon
C                   G
Inflating with the altitude

    Ba Ba Ba Ba  Ba Ba Ba Ba   Ba Ba Ba Ba Ba Ba Ba
e|-----------------------------------------------|
B|----------3------------3--------------3--------|
G|-3--3--5------3--3--5------3--3--5-------5--3-2|
D|-----------------------------------------------|
A|-----------------------------------------------|
E|-----------------------------------------------|

C                      F
I watch the patchwork farm's
F                            C
Slow fade into the ocean's arms
C                                     F
And from here they can't see me stare
F                             C
The stale taste of recycled air
C        G                 Em
I watch the patchwork farm's
Em         F                  C
Slow fade into the ocean's arms
C          G               Em
Calm down release your cares
Em               F             C
The stale taste of recycled air

      C     Fmaj7   C

e|-----------0----------0-----------0----------|
B|-----1-1-3------1-1-3-------1-1-3---3-1-0----|
G|---------------------------------------------|
D|-------------3-3-----------------------------|
A|---3--------------------3-3------------------|

peace.
            
Tabs too difficult? Try these video lessons and learn fast.


comments powered by Disqus
↑ Back to top | Tablatures and chords are parodies/interpretations of the original songs. You may use it for private study, scholarship, research or language learning purposes only