» » »

No 13 Baby Bass tabs (ver.1)

Artists:  A B C D E F G H I J K L M N O P Q R S T U V W X Y Z # 

No 13 Baby Bass tabs (ver.1)

Pixies
Rating:
0/5 (0 votes)

Tabs too difficult? Try these video lessons and learn fast.
                Verse
             x8                  x3                   x11
G|---------||--------||-------||---------||---------||
D|---------||--------||-------||---------||---------||
A|---------||--------||---R---||---------||---------||
E|-3-3-3-3-||-3------||-------||-----3-3-||-3-3-3-3-||


Pre-Chorus

G|---------|---------|---------|---------|---------|---------|
D|---------|---------|---------|---------|---------|---------|
A|-4-4-4-4-|-5-5-5-5-|---------|-4-4-4-4-|-5-5-5-5-|-1-1-1-1-|
E|---------|---------|-3-3-3-3-|---------|---------|---------|

G|---------|---------|---------|---------|---------||
D|---------|---------|---------|---------|---------||
A|-4-4-4-4-|-5-5-5-5-|---------|---------|---------||
E|---------|---------|-1-1-1-1-|-0-0-0-0-|-3-3-3-3-||


Chorus
                                      x2
G|--------|--------|--------|-------||---------|---------||
D|--------|--------|-1--1-1-|-------||---------|---------||
A|-3--3-3-|--------|--------|-1--1--||-4-4-4-4-|-5-5-5-5-||
E|--------|-3--3-3-|--------|-------||---------|---------||


Order:
verse
pre-chorus
chorus
verse
pre-chorus
chorus (without the second part)
pre-chorus
chorus (to fade out)
            
Tabs too difficult? Try these video lessons and learn fast.


comments powered by Disqus
↑ Back to top | Tablatures and chords are parodies/interpretations of the original songs. You may use it for private study, scholarship, research or language learning purposes only