» » »

Nimrod's Son Bass tabs (ver.1)

Artists:  A B C D E F G H I J K L M N O P Q R S T U V W X Y Z # 

Nimrod's Son Bass tabs (ver.1)

Pixies
Rating:
0/5 (0 votes)

Tabs too difficult? Try these video lessons and learn fast.
                Verse:
|-----------------|
|-----------------|
|--4--------------|
|-----4--3--2--0--| x10

|-----------------------------------|
|-----------------------------------|
|----------2-2-2-2---------3-3-3-3--|
|--2-2-2-2---------3-3-3-3----------| x1

|-----------------|
|-----------------|
|--4--------------|
|-----3--2--1--0--| x1

|-----------------------------------|
|-----------------------------------|
|------------------2-2-2-2-3-3-3-3--|
|--2-2-2-2-3-3-3-3------------------| x1

|-----------------|
|-----------------|
|--4--------------|
|-----3--2--1--0--| x2

Chorus:
|--------------------------------------------------------------------------------|
|--------------------------------------------------------------------------------|
|--------------------------------------------------------------------------------|
|--7-7-7-7-7-7-7-7-7-7-7-7--5-5-5-5-5-5-5-5-5-5-5-5--3-3-3-3-3-3-3-3-3-3-3-3--2--|x1

Ending:
|-----------------------------------------------------|
|-----------------------------------------------------|
|--4--5--2--4--4--5--2--4--4--5--2--4--4--5--2--4--4--|
|-----------------------------------------------------|
            
Tabs too difficult? Try these video lessons and learn fast.




comments powered by Disqus
↑ Back to top | Tablatures and chords are parodies/interpretations of the original songs. You may use it for private study, scholarship, research or language learning purposes only