» » »

Monkey Gone To Heaven Bass tabs (ver.3)

Artists:  A B C D E F G H I J K L M N O P Q R S T U V W X Y Z # 

Monkey Gone To Heaven Bass tabs (ver.3)

Pixies
Rating:
0/5 (0 votes)

Tabs too difficult? Try these video lessons and learn fast.
                
extremely simple song,

intro
g-------------|
d-------------|
a-------------|
e-0--2--2--5--|

verse
g-----------------------------------|
d-----------------------------------|
a-5--5-5--2--2-2--5--5-5------------|
e------------------------0--2--2--5-|

chorus
"this monkey's gone to heaven"
g------------------------------------|
d------------------------------------|
a-555555552222222255555555-----------|
e-------------------------0--2--2--5-|

quiet part
A-(5)----(2)------(5)----------------|
E ------------------------0--2--2--5-|


send corrections,tabs,loveletters and
            
Tabs too difficult? Try these video lessons and learn fast.


comments powered by Disqus
↑ Back to top | Tablatures and chords are parodies/interpretations of the original songs. You may use it for private study, scholarship, research or language learning purposes only