» » »

Isla De Enranta Bass tabs (ver.1)

Artists:  A B C D E F G H I J K L M N O P Q R S T U V W X Y Z # 

Isla De Enranta Bass tabs (ver.1)

Pixies
Rating:
0/5 (0 votes)
Tabs too difficult? Try these video lessons and learn fast.
                verse:
G|-----------------|
D|-----------------|
A|--2-2-2-2-1-0-3--|
E|-----------------|

chorus: 
G|-------------------------------------------|
D|---------------------2-2-2-2-2-2-2-2-2-----|
A|--2-2-2-2-2-2-2-2-2---------------------2--|
E|-------------------------------------------|

after the "hey babe what are we doing here?" part play:
G|--------------|
D|--------------|
A|--------------|
E|--3--5-5-5-5--|
            
Tabs too difficult? Try these video lessons and learn fast.


comments powered by Disqus
↑ Back to top | Tablatures and chords are parodies/interpretations of the original songs. You may use it for private study, scholarship, research or language learning purposes only