» » »

I Bleed Bass tabs (ver.1)

Artists:  A B C D E F G H I J K L M N O P Q R S T U V W X Y Z # 

I Bleed Bass tabs (ver.1)

Pixies
Rating:
0/5 (0 votes)

Tabs too difficult? Try these video lessons and learn fast.
                G-------------|-------------|-------------|-------------|
D-------------|-------------|-------------|-------------|
A-------------|-------------|-------------|-------------|
E--2--2--2--2/|/9--9--9--9--|--2--2--2--2/|/7--7--7--7--| x7
    
G-------------|---------------|
D-------------|---------------|
A-------------|---------------|
E--2--2--2--2/|/9--9--9--9h12-| x3

G-------------|-------------|-------------|-------------|
D-------------|-------------|-------------|-------------|
A-------------|-------------|-------------|-------------|
E--2--2--2--2/|/9--9--9--9--|--2--2--2--2/|/7--7--7--7--| x5

G-------------|---------------|
D-------------|---------------|
A-------------|---------------|
E--2--2--2--2/|/9--9--9--9h12-| x6

G-------------|-------------|------------|----------------|
D-------------|-------------|------------|----------------|
A-------------|-------------|------------|----------------|
E--2--2--2--2/|/9--9--9--9--|2--2--2--2--|/7--7--5--4--2--| x1

G-------------|-------------|-------------|-------------|
D-------------|-------------|-------------|-------------|
A-------------|-------------|-------------|-------------|
E--2--2--2--2/|/9--9--9--9--|--2--2--2--2/|/7--7--7--7--| x1

G-------------|---------------|
D-------------|---------------|
A-------------|---------------|
E--2--2--2--2/|/9--9--9--9h12-| x3

G-------------|-------------|------------|------------|
D-------------|-------------|------------|------------|
A-------------|-------------|------------|------------|
E--5--5--5--5-|-2--2--2--2--|0--0--0--0--|7--7--7--7--| x4

G-------------|---------------|
D-------------|---------------|
A-------------|---------------|
E--2--2--2--2/|/9--9--9--9h12-| x2

G-------------|-------------------|
D-------------|-------------------|
A-------------|-------------------|
E--2--2--2--2/|/9--9--9--9h12-/5--| x1
            
Tabs too difficult? Try these video lessons and learn fast.




comments powered by Disqus
↑ Back to top | Tablatures and chords are parodies/interpretations of the original songs. You may use it for private study, scholarship, research or language learning purposes only