» » »

Dancing The Manta Ray Bass tabs (ver.1)

Artists:  A B C D E F G H I J K L M N O P Q R S T U V W X Y Z # 

Dancing The Manta Ray Bass tabs (ver.1)

Pixies
Rating:
0/5 (0 votes)
Tabs too difficult? Try these video lessons and learn fast.
                main riff:
G|---------------------------------|
D|-------------1-1-1-1-------------|
A|---3-3-3-3-------------1-1-1-1---|
E|---------------------------------|
 
"your head can go real screw" and "with saucers chasing you" riff:
G|---------------------------------|
D|---------------------------------|
A|---3-3-3-3-----------------------|
E|-------------3-3-3-3---4-4-4-4---|

end on C
            
Tabs too difficult? Try these video lessons and learn fast.


comments powered by Disqus
↑ Back to top | Tablatures and chords are parodies/interpretations of the original songs. You may use it for private study, scholarship, research or language learning purposes only