» » »

Crackity Jones Bass tabs (ver.1)

Artists:  A B C D E F G H I J K L M N O P Q R S T U V W X Y Z # 

Crackity Jones Bass tabs (ver.1)

Pixies
Rating:
5/5 (2 votes)

Hard to play? Try these video lessons and learn fast.
                			  Pixies - Crackity Jones


Tuning: Standard

This is the whole song and its order and it's played fairly fast.

G-|-----------------|-----------------|-----------------|-------------------|
D-|-----------------|-----------------|-----------------|-------------------|
A-|------REST-------|------REST-------|------REST-------|------REST---------|
E-|-----------------|-----------------|-----------------|-------------------|

G-|-----------------|-----------------|-----------------|-------------|
D-|*----------------|-----------------|-----------------|------------*|
A-|*----------------|-----------------|---------4-4-4-4-|-4--4-4-4-4-*|
E-|-5-5-5--5-5--5-5-|-5-5--4-4-4--4-4-|-4-4-4-4---------|-------------|

G-|--------------|-------------|-------------------------------|
D-|--------------|-------------|*-----------------------------*|
A-|--------4-4-4-|-------5-5-5-|*-------4-4-4---------5-5-4-5-*|
E-|-5-5-5--------|-4-4-4-------|-5-5-5---------4-4-4-----------|

G-|-----------------|----------|
D-|-----------------|----------|
A-|---------4-4-4-4-|-5--------|
E-|-5-5-5-5---------|----------|
                      ^Let Ring

G-|-----------------|-----------------|-----------------|-------------|
D-|*----------------|-----------------|-----------------|------------*|
A-|*----------------|-----------------|---------4-4-4-4-|-4--4-4-4-4-*|
E-|-5-5-5--5-5--5-5-|-5-5--4-4-4--4-4-|-4-4-4-4---------|-------------|

G-|-----------------|------------------------------------------|
D-|-----------------|*-----------------------------------------|
A-|-5-5-5-5---------|*-----------------------------------------|
E-|---------4-4-4-4-|-5-5-5--5-5--5-5-5-5--4-4-4--4-4--4-4-4-4-|

G-|----------------------|
D-|---------------------*|
A-|-4-4-4--4-4--4-4-4-4-*|
E-|----------------------|

G-|-----------------|-----------------|-----------------|-------------------|
D-|-----------------|-----------------|-----------------|-------------------|
A-|-4-4-4-4-4-4-4-4-|-4-4-4-4-4-4-4-4-|-5-5-5-5-5-5-5-5-|-------------------|
E-|-----------------|-----------------|-----------------|-4-4-4-4-4-4-4-4-5-|
            
Hard to play? Try these video lessons and learn fast. | Correct




comments powered by Disqus
↑ Back to top | Tablatures and chords are parodies/interpretations of the original songs. You may use it for private study, scholarship, research or language learning purposes only