» » »

Cecilia Ann Bass tabs (ver.1)

Artists:  A B C D E F G H I J K L M N O P Q R S T U V W X Y Z # 

Cecilia Ann Bass tabs (ver.1)

Pixies
Rating:
5/5 (1 vote)

Tabs too difficult? Try these video lessons and learn fast.
                			   Pixies - Cecilia Ann


                                             1st Verse                  
     W                   W                   Q       E  E  Q    E  E   
G||-------------------|-------------------|---------------------------|
D||-------------------|-------------------|---------------------------|
A||-------------------|-------------------|---------------------------|
E||-------------------|-------------------|--0----------0--0-------0--|

  Q    E  E  Q    E  E     Q    E  E  Q    E  E     Q    E  E  Q    E  E   
------------------------|------------------------|------------------------|
------------------------|------------------------|------------------------|
------------------------|------------------------|--2-------2--2-------2--|
--0-------0--0-------0--|--3-------3--3----3--3--|------------------------|

  Q    E  E  Q    E  E     Q    E  E  Q    E  E     Q    E  E  E  E  E  E   
------------------------|------------------------|-------------------------|
------------------------|------------------------|-------------------------|
--0-------0--0----0--0--|--0-------0--0-------0--|--2-------2--2--2--------|
------------------------|------------------3-----|----------------------3--|
                                                                   
  Q    Q    Q    Q       Q    E  E  Q    E  E     Q    E  E  Q    E  E   
----------------------|------------------------|------------------------|
----------------------|------------------------|------------------------|
--2----0--------------|------------------------|------------------------|
------------3----2----|--0-------0--0-------0--|--0-------0--0-------0--|

  Q    E  E  Q    E  E     Q    E  E  Q    E  E     Q    E  E  Q    E  E   
------------------------|------------------------|------------------------|
------------------------|------------------------|------------------------|
------------------------|--2-------2--2-------2--|--0-------0--0----0--0--|
--3-------3--3----3--3--|------------------------|------------------------|

  Q    E  E  Q    E  E     Q    E  E  E  E  E  E     Q    E  E  E  E  E  E   
------------------------|-------------------------|-------------------------|
------------------------|-------------------------|-------------------------|
--0-------0--0----------|-------------------------|-------------------------|
------------------3--2--|--0-------0--0--0-----0--|--0-------0--0--0-----0--|

  1st Chorus                                                 
  E        E  E  E  E  E  E  E     E  E  E  E  E  E  E  E   
--------------------------------|--------------------------|
--------------------------------|--------------------------|
--3--------3--3--3--3--3--3--3--|--2--2--2--2--2--2--2--2--|
--------------------------------|--------------------------|

  E  E  E  E  E  E  E  E     E  E  E  E  E  E  E  E   
--------------------------|--------------------------|
--------------------------|--------------------------|
--------------------------|--------------------------|
--0--0--0--0--0--0--0--0--|--0--0--0--0--0--0--0--0--|

  E  E  E  E  E  E  E  E     E  E  E  E  E  E  E  E   
--------------------------|--------------------------|
--------------------------|--------------------------|
--3--3--3--3--3--3--3--3--|--2--2--2--2--2--2--0-----|
--------------------------|-----------------------3--|
                                                
  E   E  E  E  E  E  E  E     E  E  E  E  E  E  E  E   
---------------------------|--------------------------|
---------------------------|--------------------------|
--0---0--0--0--0--0--0--0--|--0--0--0--0--0--0--0--0--|
---------------------------|--------------------------|

  E  E  E  E  E  E  E  E     E  E  E  E  E  E  E  E   
--------------------------|--------------------------|
--------------------------|--------------------------|
--2--2--2--2--2--2--2--2--|--2--2--2--2--2--2--2--2--|
--------------------------|--------------------------|

  2nd Verse                                                                  
  Q       E  E  Q    E  E    Q    E  E  Q    E  E    Q    E  E  Q    E  E  
--------------------------|-----------------------|-----------------------|
--------------------------|-----------------------|-----------------------|
--------------------------|-----------------------|-----------------------|
--0----------0--0-------0-|--0-------0--0-------0-|--3-------3--3----3--3-|

  Q    E  E  Q    E  E     Q    E  E  Q    E  E     Q    E  E  Q    E  E   
------------------------|------------------------|------------------------|
------------------------|------------------------|------------------------|
--2-------2--2-------2--|--0-------0--0----0--0--|--0-------0--0-------0--|
------------------------|------------------------|------------------3-----|

  Q    E  E  E  E  E  E     Q    Q    Q    Q     
-------------------------|----------------------|
-------------------------|----------------------|
--2-------2--2--2--------|--2----0--------------|
----------------------3--|------------3----2----|
                     
  Q                                 E  E  E  E  E  E   
------------------------------------------------------|
------------------------------------------------------|
------------------------------------------------------|
--0------------------------------------0--0--0--0--0--|

  E  E  E  E  E  E  E  E     E  E  E  E  E  E  E  E   
--------------------------|--------------------------|
--------------------------|--------------------------|
--------------------------|--------------------------|
--0--0-----0--0--0--0--0--|--3--3-----3--3--3--3--3--|

  E  E  E  E  E  E  E  E     E  E  E  E  E  E  E  E     Q    Q    Q    Q     
--------------------------|--------------------------|----------------------|
--------------------------|--------------------------|----------------------|
--2--2-----2--2--2--2--2--|--0--0-----0--0--0-----0--|--2----0--------------|
--------------------------|--------------------3-----|------------3----2----|

  Q    E  E  E  E  E  E     Q    E  E  E  E  E  E   
-------------------------|-------------------------|
-------------------------|-------------------------|
-------------------------|-------------------------|
--0-------0--0--0--3--2--|--0-------0--0--0--0--0--|


  2nd Chorus                                                  
  E        E  E  E  E  E  E  E     E  E  E  E  E  E  E  E   
--------------------------------|--------------------------|
--------------------------------|--------------------------|
--3--------3--3--3--3--3--3--3--|--5--5--5--5--5--5--5--5--|
--------------------------------|--------------------------|

  E  E  E  E  E  E  E  E     E  E  E  E  E  E  E  E   
--------------------------|--------------------------|
--------------------------|--------------------------|
--------------------------|--------------------------|
--0--0--0--0--0--0--0--0--|--0--0--0--0--0--0--0--0--|

  E  E  E  E  E  E  E  E     E  E  E  E  E  E  E  E   
--------------------------|--------------------------|
--------------------------|--------------------------|
--3--3--3--3--3--3--3--3--|--2--2--2--2--2--2--0-----|
--------------------------|-----------------------3--|
                                                  
  E   E  E  E  E  E  E  E     E  E  E  E  E  E  E  E   
---------------------------|--------------------------|
---------------------------|--------------------------|
--0---0--0--0--0--0--0--0--|--0--0--0--0--0--0--0--0--|
---------------------------|--------------------------|

  E  E  E  E  E  E  E  E     E  E  E  E  E  E  E  E   
--------------------------|--------------------------|
--------------------------|--------------------------|
--2--2--2--2--2--2--2--2--|--2--2--2--2--2--2--2--2--|
--------------------------|--------------------------|

  Final Verse                                            
  Q          E  E  Q    E  E     Q    E  E  Q    E  E   
------------------------------|------------------------|
------------------------------|------------------------|
------------------------------|------------------------|
--0-------------0--0-------0--|--0-------0--0-------0--|


  Q    E  E  Q    E  E     Q    E  E  Q    E  E     Q    E  E  Q    E  E   
------------------------|------------------------|------------------------|
------------------------|------------------------|------------------------|
------------------------|--2-------2--2-------2--|--0-------0--0----0--0--|
--3-------3--3----3--3--|------------------------|------------------------|


  Q    E  E  Q    E  E     Q    E  E  E  E  E  E     Q    Q    Q    Q     
------------------------|-------------------------|----------------------|
------------------------|-------------------------|----------------------|
--0-------0--0-------0--|--2-------2--2--2--------|--2----0--------------|
------------------3-----|----------------------3--|------------3----2----|
                                                                          
  Q    E  E  E  E  E  E    E  E  E  E  E  E  E  E    E  E  E  E  E  E  E  E  
------------------------|-------------------------|-------------------------|
------------------------|-------------------------|-------------------------|
------------------------|-------------------------|-------------------------|
--0-------0--0--0--0--0-|--0--0-----0--0--0--0--0-|--3--3-----3--3--3--3--3-|

  E  E  E  E  E  E  E  E     E  E  E  E  E  E  E  E   
--------------------------|--------------------------|
--------------------------|--------------------------|
--2--2-----2--2--2--2--2--|--0--0-----0--0--0-----0--|
--------------------------|--------------------3-----|

  E  E  E  E  E  E  E  E    Q    E  E  E  E  E  E    Q       E  E  E  E  E   
-------------------------|------------------------|------------------------|
-------------------------|------------------------|------------------------|
--2--2--0--0-------------|------------------------|------------------------|
-------------3--3--2--2--|--0-------0--0--0--3--2-|--0-------0--0--0--0--0-|


  Outro                                                                      
  E     E  E  E  E  E  E  E     E  E  E  E  E  E  E  E     W                 
-----------------------------|--------------------------|-------------------|
-----------------------------|--------------------------|-------------------|
--0-----0--0--0--0--0--0--0--|--2--2--2--2--2--2--2--2--|-------------------|
-----------------------------|--------------------------|--0----------------|

  W                  W                 W                   W              
------------------|------------------|------------------|------------------|
------------------|------------------|------------------|------------------|
------------------|------------------|------------------|------------------|
--L---------------|--L---------------|------------------|------------------|

  W                  
-------------------||
-------------------||
-------------------||
-------------------||


Duration Legend
---------------
W - whole
H - half
Q - quarter
E - 8th
S - 16th
T - 32nd
X - 64th
. - note dotted
|-n-|  - n-tuplets
            
Tabs too difficult? Try these video lessons and learn fast.


comments powered by Disqus
↑ Back to top | Tablatures and chords are parodies/interpretations of the original songs. You may use it for private study, scholarship, research or language learning purposes only