» » »

Caribou Bass tabs (ver.1)

Artists:  A B C D E F G H I J K L M N O P Q R S T U V W X Y Z # 

Caribou Bass tabs (ver.1)

Pixies
Rating:
5/5 (4 votes)

Hard to play? Try these video lessons and learn fast.
                Verse
G|-----------|-----------||
D|-----------|-----------||
A|-----------|-3--3-3--3-||
E|-3--3-3--3-|-----------||

Chorus                                              x2
G||-----------|-----------|-----------|-------------||
D||-----------|-----------|-----------|-------------||
A||-----------|-6--6-6--6-|-1--1-1--1-|-2-2-2-4-4-4-||
E||-3--3-3--3-|-----------|-----------|-------------||
                           x2
G|-----------|-------------||
D|-----------|-------------||
A|-6--6-6--6-|-2-2-2-4-4-4-||
E|-----------|-------------||

Order:
Rest
Verse x10
Chorus x1
Verse x12
Chorus x3
End On G
            
Hard to play? Try these video lessons and learn fast. | Correct




comments powered by Disqus
↑ Back to top | Tablatures and chords are parodies/interpretations of the original songs. You may use it for private study, scholarship, research or language learning purposes only