» » »

Blown Away Bass tabs (ver.1)

Artists:  A B C D E F G H I J K L M N O P Q R S T U V W X Y Z # 

Blown Away Bass tabs (ver.1)

Pixies
Rating:
0/5 (0 votes)

Tabs too difficult? Try these video lessons and learn fast.
                Intro
G|----------|---------||
D|----------|---------|| x8
A|-------s--|---------||
E|-3-3-3-\8-|---8-8-8-||

1st & 2nd Verses    x2                 x2
G||-----------------||-----------------||-----------------|-----------------||
D||-----------------||-----------------||-----------------|-----------------||x2
A||-----------------||-3-3-3-3-3-3-3-3-||-----------------|-----------------||
E||-5-5-5-5-5-5-5-5-||-----------------||-3-3-3-3-3-3-3-3-|-0-0-0-0-0-0-0-0-||

Chorus
G|-----------|
D|-----------| then, Intro x8
A|-----------|
E|-5---------|

Bridge              x2                 x2
G||-----------------||-----------------||
D||-----------------||-----------------|| x2
A||-----------------||-3-3-3-3-3-3-3-3-||
E||-5-5-5-5-5-5-5-5-||-----------------||

3rd Verse           x2                 x2
G||-----------------||-----------------||-----------------|-----------------|-------
D||-----------------||-----------------||-----------------|-----------------|-------
A||-----------------||-3-3-3-3-3-3-3-3-||-----------------|-----------------|-------
E||-5-5-5-5-5-5-5-5-||-----------------||-3-3-3-3-3-3-3-3-|-0-0-0-0-0-0-0-0-|-5-----
            
Tabs too difficult? Try these video lessons and learn fast.


comments powered by Disqus
↑ Back to top | Tablatures and chords are parodies/interpretations of the original songs. You may use it for private study, scholarship, research or language learning purposes only