» » »

Ana Bass tabs (ver.1)

Artists:  A B C D E F G H I J K L M N O P Q R S T U V W X Y Z # 

Ana Bass tabs (ver.1)

Pixies
Rating:
5/5 (1 vote)

Tabs too difficult? Try these video lessons and learn fast.
                Intro:

G*|--------------------|
D*|--------------------|
A*|-----------1--------|
E*|-0---0--------------|

Body 1:

G*|--------------------|--------------------|
D*|--------------------|--------------------|
A*|--1---1-1----0--0-0-|--4---4-4-----------|
E*|--------------------|-----------4--3--2--|

G*|--------------------|--------------------|
D*|--------------------|--------------------|
A*|--------------------|--------------------|
E*|--2---2-2----5--5-5-|--6---6-6--5---5-5--|

G*|--------------------|--------------------|
D*|--------------------|--------------------|
A*|--4---4-4-----------|--------------------|
E*|-----------4--3--2--|--2---2-2----5--5-5-|

G*|--------------------|--------------------|
D*|--------------------|--------------------|
A*|--4---4-4-----------|------------4-4-4-4-|
E*|----------4-4-4-4---|--4-4-4-4-----------|

G*|--------------------|--------------------|
D*|--------------------|--------------------|
A*|--4-4-4-4-----------|--------------------|
E*|----------4-4-4-4---|--4-4-4-4---5-5-5-5-|

Body 2:

G*|--------------------|--------------------|
D*|--------------------|--------------------|
A*|--------------------|------------1-------|
E*|--5-5-5-5--6-6-6-6--|--0-0-0-0-----------|

G*|--------------------|--------------------|
D*|--------------------|--------------------|
A*|--2---2-2----1--1-1-|--5---5-5-----------|
E*|--------------------|-----------5--4--3--|

G*|--------------------|--------------------|
D*|--------------------|--------------------|
A*|--------------------|--------------------|
E*|--3---3-3----6--6-6-|--7---7-7--6---6-6--|

G*|--------------------|--------------------|
D*|--------------------|--------------------|
A*|--5---5-5-----------|--------------------|
E*|-----------5--4--3--|--3---3-3----6--6-6-|

G*|--------------------|--------------------|
D*|--------------------|--------------------|
A*|--5---5-5-----------|------------4-4-4-4-|
E*|----------5-5-5-5---|--5-5-5-5-----------|

G*|--------------------|--------------------|
D*|--------------------|--------------------|
A*|--4-4-4-4-----------|-----2--------------|
E*|----------4-4-4-4---|--2---------5-5-5-5-|

G*|--------------------|--------------------|
D*|--------------------|--------------------|
A*|--------------------|------------1-------|
E*|--5-5-5-5--6-6-6-6--|--0-0-0-0-----------|
            
Tabs too difficult? Try these video lessons and learn fast.


comments powered by Disqus
↑ Back to top | Tablatures and chords are parodies/interpretations of the original songs. You may use it for private study, scholarship, research or language learning purposes only