» » »

The Pigeon Detectives, What Can I Say Tabs (ver.1)

Artists:  A B C D E F G H I J K L M N O P Q R S T U V W X Y Z # 

What Can I Say Tabs (ver.1)

The Pigeon Detectives Tabs
 Rating:
4/5 (4 votes)
What Can I Say lessons Tabs too difficult? Try these video lessons and learn fast
1
                
*This is the first song I've fully learned by ear*

Tuning: Standard

Intro: 

e|---------------------|
B|-9-------------------|
G|---9---9-11-9--------|
D|-----7--------7------|
A|---------------------|
E|---------------------|

Pre Chorus
e|------------------|
B|--9~--9~--9~--9~--|
G|--9~--9~--9~--9~--|
D|--9~--9~--9~--9~--|
A|--7~--7~--7~--7~--|
E|------------------|

Chorus
e|-----------------------------------------|
B|--9-------2-------9-------6--------------|
G|--9-------2-------9-------6--------------|
D|--9-(x16)-2-(x16)-9-(x16)-6-(X16)--------|
A|--7-------0-------7-------4--------------|
E|-----------------------------------------|

Solo: (Tremblo pick)
e|--9-7-11-9-12-9-14-12-11-9-14-12-11-9-7--|
B|-----------------------------------------|
G|-----------------------------------------|
D|-----------------------------------------|
A|-----------------------------------------|
E|-----------------------------------------|

e|--9-7-11-9-12-9-14-12-14-16-17-16-14-16-12-14-12-11-9-7-----|
B|------------------------------------------------------------|
G|------------------------------------------------------------|
D|------------------------------------------------------------|
A|------------------------------------------------------------|
E|------------------------------------------------------------|

Outro:
e|----------------------|
B|-9----------------9---|
G|---9---9-11-9-----9---|
D|-----7--------7---9---|
A|------------------7---|
E|----------------------|


************************************

| /   slide up
| \   slide down
| h   hammer-on
| p   pull-off
| ~   vibrato
| +   harmonic
| x   Mute note
| b   Bend
| pb  Pre-bend
| br  Bend release
| pbr Pre-bend release
| brb Bend release bend

************************************
            
Submit corrections

comments powered by Disqus
↑ Back to top | The Pigeon Detectives Tabs for What Can I Say. Lyrics for acoustic guitar and electric guitar. 1 Tablatures and chords are parodies/interpretations of the original songs. You may use it for private study, scholarship, research or language learning purposes only