» » »

The Pigeon Detectives, Wait For Me Tabs (ver.4)

Artists:  A B C D E F G H I J K L M N O P Q R S T U V W X Y Z # 

Wait For Me Tabs (ver.4)

The Pigeon Detectives Tabs
 Rating:
4.2/5 (5 votes)
Wait For Me lessons Tabs too difficult? Try these video lessons and learn fast
                This is an amazing, and thankfully easy song. Hope y'all like it.

Intro

Guitar 1

e-4---4---7---6---|
B---5---5---5---5-| x4
G-----------------|
D-----------------|
A-----------------|
E-----------------|

Verse

Guitar 1

e-4---4---7---6---|
B---5---5---5---5-|
G-----------------|
D-----------------|
A-----------------|
E-----------------|

Guitar 2

e-0---4---2---0---|
B-0---5---2---2---|
G-1---6---2---2---|
D-2---6---4---2---|
A-2---4---4---0---|
E-0-------2-------|

Chorus

Guitar 2

e-2-------4-------5---|
B-4-------5-------5---|
G-4-(x4)--6-(x2)--6---|(x2)
D-4-------6-------7---|
A-2-------4-------7---|
E-----------------5---|

Bridge

Guitar 1

e-----------------------|
B-----------------------|
G-9-8---6---------------|
D-----9---9-6-7-6-------|
A-----------------7-9-7-|
E-----------------------|

e---------------------|
B---------------------|
G-9-8---6-------------|
D-----9---9-6-7-6-----|
A-----------------9-7-|
E---------------------|
            
Submit corrections

comments powered by Disqus
↑ Back to top | The Pigeon Detectives Tabs for Wait For Me. Lyrics for acoustic guitar and electric guitar. Tablatures and chords are parodies/interpretations of the original songs. You may use it for private study, scholarship, research or language learning purposes only