» » »

Take Her Back Tabs (ver.1)

Artists:  A B C D E F G H I J K L M N O P Q R S T U V W X Y Z # 

Take Her Back Tabs (ver.1)

The Pigeon Detectives
Rating:
0/5 (0 votes)

Hard to play? Try these video lessons and learn fast.
                (Intro)
Intro/Verse

Guitar 1

e-----3-5-3-----|
B-3/5-------5-3-|
G---------------|
D---------------|
A---------------|
E---------------|

You only slide the first time the riff comes in each time

Guitar 2

e-3---5---|
B-5---6---|
G-5---7---|
D-5---7---|
A-3---5---|
E---------|

I think the ending riff is something like this

e---------------------------------------------------|
B-------6-------------6-----------------------------|
G-----7---9-7-------7---9-7---7-7h9-7-7h9-7-7h9-7-7-|
D-7-9---------9-7-9---------9-----------------------|
A---------------------------------------------------|
E---------------------------------------------------|
            
Hard to play? Try these video lessons and learn fast. | Correct




comments powered by Disqus
↑ Back to top | Tablatures and chords are parodies/interpretations of the original songs. You may use it for private study, scholarship, research or language learning purposes only