» » »

The Pigeon Detectives, Take Her Back Bass tabs (ver.1)

Artists:  A B C D E F G H I J K L M N O P Q R S T U V W X Y Z # 

Take Her Back Bass tabs (ver.1)

The Pigeon Detectives Tabs
Rating:
5/5 (4 votes)
Take Her Back lessons Tabs too difficult? Try these video lessons and learn fast
                -------------------------------------------------------------------------------
			     Take Her Back - Pigeon Detectives
-------------------------------------------------------------------------------


Tuning: EADG

Intro And Verse x3

G|---------------------------------------------------------------|
D|---------------------------------------------------------------|
A|---3-3------3-5-3------3-3------3-5-3--------------------------|
E|--------3-3-------3---------3-3-------3------------------------|

G|---------------------------------------------------------------|
D|----------------5-----------------5----------------------------|
A|---5-5------5-7---7---5-5-----5-7---7--------------------------|
E|--------5-5---------------5-5----------------------------------|

Chorus X2

G|---------------------------------------------------------------|
D|---------------------------------------------------------------|
A|--0-0-0-0-0-0-0-0-3-3-3-3-3-3-3-3------------------------------|
E|---------------------------------------------------------------|

G|---------------------------------------------------------------|
D|---------------------------------------------------------------|
A|--5-5-5-5-5-5-5-5-5-5-5-5-5-7-5-3------------------------------|
E|---------------------------------------------------------------|

Verse x2

G|---------------------------------------------------------------|
D|---------------------------------------------------------------|
A|---3-3------3-5-3------3-3------3-5-3--------------------------|
E|--------3-3-------3---------3-3-------3------------------------|

G|---------------------------------------------------------------|
D|---------------5-----------------5-----------------------------|
A|---5-5-----5-7---7---5-5-----5-7---7---------------------------|
E|-------5-5---------------5-5-----------------------------------|

Verse Variation x1

G|---------------------------------------------------------------|
D|---------------------------------------------------------------|
A|----3-x------3-5-3-------3-x------3-5-3------------------------|
E|---------3-x---------3--------3-x--------3---------------------|

G|---------------------------------------------------------------|
D|----------------5-------------------5--------------------------|
A|---5-5------5-7---7----5-5------5-7---7------------------------|
E|--------5-5----------------5-5---------------------------------|

Chorus X2

G|---------------------------------------------------------------|
D|---------------------------------------------------------------|
A|--0-0-0-0-0-0-0-0-3-3-3-3-3-3-3-3------------------------------|
E|---------------------------------------------------------------|

G|---------------------------------------------------------------|
D|---------------------------------------------------------------|
A|--5-5-5-5-5-5-5-5-5-5-5-5-5-7-5-3------------------------------|
E|---------------------------------------------------------------|

Solo X2

G|---------------------------------------------------------------|
D|---------------------------------------------------------------|
A|---3-3------3-5-3------3-3------3-5-3--------------------------|
E|--------3-3-------3---------3-3-------3------------------------|

G|---------------------------------------------------------------|
D|---------------5-----------------5-----------------------------|
A|---5-5-----5-7---7---5-5-----5-7---7---------------------------|
E|-------5-5---------------5-5-----------------------------------|

Bridge X2

G|---------------------------------------------------------------|
D|---------------------------------------------------------------|
A|---3-------------------3---------------------------------------|
E|----------------------3----------------------------------------| 

G|---------------------------------------------------------------|
D|---------------------------------------------------------------|
A|---5-------------------5---------------------------------------|
E|---------------------------------------------------------------| 

1,2,3,4!!!!!!!!!!!!

Chorus till end

G|---------------------------------------------------------------|
D|---------------------------------------------------------------|
A|--0-0-0-0-0-0-0-0-3-3-3-3-3-3-3-3------------------------------|
E|---------------------------------------------------------------|

G|---------------------------------------------------------------|
D|---------------------------------------------------------------|
A|--5-5-5-5-5-5-5-5-5-5-5-5-5-7-5-3----------------&-end-on---3--|
E|---------------------------------------------------------------|



| /  slide up
| \  slide down
| h  hammer-on
| p  pull-off
| ~  vibrato
| +  harmonic
| x  Mute note
===============================================================================
            
Submit corrections

comments powered by Disqus
↑ Back to top | The Pigeon Detectives Bass for Take Her Back. Lyrics for acoustic guitar and electric guitar. Tablatures and chords are parodies/interpretations of the original songs. You may use it for private study, scholarship, research or language learning purposes only