» » »

Take Her Back Tabs (ver.2)

Artists:  A B C D E F G H I J K L M N O P Q R S T U V W X Y Z # 

Take Her Back Tabs (ver.2)

The Pigeon Detectives
Rating:
5/5 (6 votes)

Hard to play? Try these video lessons and learn fast.
                -------------------------------------------------------------------------------
                             SONG NAME - Band Name
-------------------------------------------------------------------------------

Tuning:Standard

Chords
    C             Dm           Am
e|--8----     ----10----   ----5----   
B|--8----     ----10----   ----5----
G|--9----     ----10----   ----5----
D|--10---     ----12----   ----7----  
A|--10---     ----12----   ----7----
E|--8----     ----10----   ----5----



Intro Riff

Guitar 2      1st and 2nd Time: C 
              3rd and 4th time: Dm    
             e|--------------------------------|      
Guitar 1     B|---------8--10--8---------------|     
             G|----7--9------------7---9-------|       
             D|--------------------------------|x 4  
             A|--------------------------------|      
             E|--------------------------------|     

Verse Riff 

  (He's not sure...)(Is that too much...)
   C                    Dm
e|-----------------------------------------------------------|
B|------------------------8--10--8------------8--10--8-------|Straight Back 
G|--5 (Let Ring) ----7/9-------------9--7--9------------9--7-|To The Begining
D|-----------------------------------------------------------| x2
A|-----------------------------------------------------------|
E|-----------------------------------------------------------|


Chorus

   Am               C                Dm
   (She's.. wants) (She's... needs) (Take her Back....)
e|--8---8---8---8---12--12--12--12---10-8-10-(x6)10/12-10-8---|
B|--10--10--10--10--13--13--13--13-------------------------10-|
G|--9---9---9---9---12--12--12--12----------------------------|
D|------------------------------------------------------------| x2
A|------------------------------------------------------------|
E|------------------------------------------------------------|

 
Verse 3

e|----------------10--8------------------10---12---|
B|----------------10--8--8\6-------------10---10---|
G|-5----7----5-----------9\7--5----7---------------|
D|-------------------------------------------------|
A|-------------------------------------------------|
E|-------------------------------------------------|


Outro

e|-------------------------------------------------|
B|-------------------------------------------------|
G|----5--7/9\7--5---------5--7/9\7--5--7-7-5-7-7-5-|
D|-7---------------5--7----------------------------|
A|-------------------------------------------------|
E|-------------------------------------------------|

e|------------------------------------|
B|------------------------------------|
G|--7-7-5-7-7-5-7-7-5-7-7-5-7/9-7-5---|
D|----------------------------------7-| x2
A|------------------------------------|
E|------------------------------------|


Order

Intro Riff
Verse
Chorus
Intro Riff
Verse
Chorus
Solo (I'll Tab It Later)Verse Chords
Verse 3
Chorus
Outro

I hope this tab is correct and i hope it helps
im not sure about the 3rd verse so if anyone thinks theres a better way please tell me

| /  slide up
| \  slide down
| h  hammer-on
| p  pull-off
| ~  vibrato
| +  harmonic
| x  Mute note
===============================================================================
            
Hard to play? Try these video lessons and learn fast. | Correct




comments powered by Disqus
↑ Back to top | Tablatures and chords are parodies/interpretations of the original songs. You may use it for private study, scholarship, research or language learning purposes only