» » »

Making Up Numbers Tabs (ver.2)

Artists:  A B C D E F G H I J K L M N O P Q R S T U V W X Y Z # 

Making Up Numbers Tabs (ver.2)

The Pigeon Detectives
Rating:
5/5 (1 vote)

Hard to play? Try these video lessons and learn fast.
                (Intro)
|-------------------------------------------------|---------|
|-------12-12-------12-12-------12-12-------12-12-|         |
|-12-12-------12-12-------12-12-------12-12-------|         |
|-------------------------------------------------|         |
|-------------------------------------------------|         |
|-------------------------------------------------|         |
                                                  |   X 2   |
|-------------------------------------------------|         |  
|-----------12-12-15-15-----------12-12-15-15-----|         |
|-9-9-12-12-------------9-9-12-12-----------------|         |
|-------------------------------------------------|         |
|-------------------------------------------------|         |
|-------------------------------------------------|---------|
            
Hard to play? Try these video lessons and learn fast. | Correct




comments powered by Disqus
↑ Back to top | Tablatures and chords are parodies/interpretations of the original songs. You may use it for private study, scholarship, research or language learning purposes only