» » »

The Pigeon Detectives, Making Up Numbers Tabs (ver.1)

Artists:  A B C D E F G H I J K L M N O P Q R S T U V W X Y Z # 

Making Up Numbers Tabs (ver.1)

The Pigeon Detectives Tabs
 Rating:
4.2/5 (5 votes)
Making Up Numbers lessons Tabs too difficult? Try these video lessons and learn fast
1
                -------------------------------------------------------------------------------
               Making up Numbers - Pigeon Detectives
-------------------------------------------------------------------------------


Standard Tuning:EADGBe

| /  slide up
| \  slide down
| h  hammer-on
| p  pull-off
| ~  vibrato
| +  harmonic
| x  Mute note

Theres only one other tab for this song and its only got the intro so heres some more
I wont write every little bit so listen to the song for timing and rythmn 

Intro Riff - 1st Guitar
e|-------------------------------|    
B|---------12--12--------12--12--|
G|--12--12--------12--12---------| X2
D|-------------------------------|
A|-------------------------------|
E|-------------------------------|

e|-----------------------10--10--|
B|---------------12--12----------|
G|--9--9--12--12-----------------| X2
D|-------------------------------|
A|-------------------------------|
E|-------------------------------|

2nd Guitar
e|------------------------------|
B|------------------------------|
G|--------7--7-------7--7-------| X2
D|--5--5-------5--5-------------|
A|------------------------------|
E|------------------------------|

e|------------------------------|
B|------------------------------|
G|--------4---4---------4--4----| X2
D|--2--2--5---5---2--2--5--5----|
A|------------------------------|
E|------------------------------|

e|------------------------------|
B|------------------------------|
G|--------4/7--7--7--4--4-------| X2
D|--2--2------------------------|
A|------------------------------|
E|------------------------------|

Verse 1 Riff 0:14 - I told you i need you, etc
e|----------------------------------------------------------|
B|----------------------------------------------------------|
G|--12----9-----------55555555-44444444-55555555-44444444---| X2
D|--12----9--(9/16\5)-55555555-44444444-55555555-44444444---|
A|--10----7-----------33333333-22222222-33333333-22222222---|
E|----------------------------------------------------------|

Chorus 0:40 - What the f**k are we doing here? etc
e|----------------12--12--------|---------------12--12-------|
B|---------13--13--------13--13-|--------12--12-------12--12-|
G|--12--12----------------------|-12--12---------------------| X2
D|------------------------------|----------------------------|
A|------------------------------|----------------------------|
E|------------------------------|----------------------------|


e|----------------12--12---------------------------------------|
B|--10--10--13--13-------13--13--10--10--13--13--12--12--15--15|
G|-------------------------------------------------------------|
D|-------------------------------------------------------------|
A|-------------------------------------------------------------|
E|-------------------------------------------------------------|

e|----------------12--12---------|
B|---------13--13--------13--13--|
G|--12--12-----------------------| X2
D|-------------------------------|
A|-------------------------------|
E|-------------------------------|

Intro Riff
Verse Riff
Chorus

Solo 1:46 (Theres more im just tabbing the start)
e|-------------------------------------------------|
B|-------------------------------13-12-10-----10~--|
G|-12-12-12-12-12-12-12-12-12-12-----------12------|
D|-------------------------------------------------|
A|-------------------------------------------------|
E|-------------------------------------------------|

Chorus

Bridge 2:52 - And I've got to get away, etc

e|----------------12--12-----------------------12--12-------|
B|---------13--13--------13--13---------12--12-------12--12-|
G|--12--12-----------------------12--12---------------------|
D|----------------------------------------------------------|
A|----------------------------------------------------------|
E|----------------------------------------------------------|

(run, run, run away) etc
e|--------------------------------------|
B|--------------------------------------|
G|--9-9-9-9-9-9-9-9----7-7-7-7-7-7-7-7--| X2
D|--9-9-9-9-9-9-9-9----7-7-7-7-7-7-7-7--|
A|--7-7-7-7-7-7-7-7----5-5-5-5-5-5-5-5--|
E|--------------------------------------|
            
Submit corrections

comments powered by Disqus
↑ Back to top | The Pigeon Detectives Tabs for Making Up Numbers. Lyrics for acoustic guitar and electric guitar. 1 Tablatures and chords are parodies/interpretations of the original songs. You may use it for private study, scholarship, research or language learning purposes only