» » »

Keep On Your Dress Bass tabs (ver.1)

Artists:  A B C D E F G H I J K L M N O P Q R S T U V W X Y Z # 

Keep On Your Dress Bass tabs (ver.1)

The Pigeon Detectives
Rating:
5/5 (1 vote)

Hard to play? Try these video lessons and learn fast.
                -------------------------------------------------------------------------------
-------------------------------------------------------------------------------

  
Tuning: EADG

Intro

Starts at 0.14
G|------------------|
D|------------------|
A|-4~-------7~------|
E|-------5--------7-| x2


Verse

G|-----------------------------------------|
D|-----------------------------------------|
A|-4--4-4--4-4---------7--7-7--7-7---------|
E|--------------5-5--5--------------7-7--7-| x6


Chorus

G|-------------------------------------------------------------------|
D|-4-4-4-4-4-4-4-4--7-7-7-7-7-7-7-7----------------------------------|
A|-----------------------------------4-4-4-4-4-4-4-2-4-4-4-4-4-4-4-4-|
E|-------------------------------------------------------------------| x4


Verse

G|-----------------------------------------|
D|-----------------------------------------|
A|-4--4-4--4-4---------7--7-7--7-7---------|
E|--------------5-5--5--------------7-7--7-| x8


Chorus

G|-------------------------------------------------------------------|
D|-4-4-4-4-4-4-4-4--7-7-7-7-7-7-7-7----------------------------------|
A|-----------------------------------4-4-4-4-4-4-4-2-4-4-4-4-4-4-4-4-|
E|-------------------------------------------------------------------| x3

G|-----------------------------------------------|
D|-4-4-4-4-4-4-4-4--7-7-7-7-7-7-7-7--------------|
A|-----------------------------------4--4---4--4-|
E|-----------------------------------------------|


Solo

G|-----------------------------------------|
D|-----------------------------------------|
A|-4--4-4--4-4---------7--7-7--7-7---------|
E|--------------5-5--5--------------7-7--7-| x4


Bridge

G|---------------------------------------|
D|---------------------------------------|
A|-------4---------------------2--4-------|
E|-4~---------5----4\0~----4-5--------5\-|

G|----------------------------------------------|
D|----------------------------------------------|
A|----------------------2--4--4-4--4------------|
E|-0--0-0--0-0--0-0-4-5--------------5--5-5--5\-|

G|----------------------------------------------------------|
D|----------------------------------------------------------|
A|----------------------2--4-4-4-4-4-4-4-4--2-2-2-2-2-2-2-2-|
E|-0--0-0--0-0--0-0-4-5-------------------------------------|


Chorus

G|-------------------------------------------------------------------|
D|-4-4-4-4-4-4-4-4--7-7-7-7-7-7-7-7----------------------------------|
A|-----------------------------------4-4-4-4-4-4-4-2-4-4-4-4-4-4-4-4-|
E|-------------------------------------------------------------------| x3

G|-----------------------------------------------|
D|-4-4-4-4-4-4-4-4--7-7-7-7-7-7-7-7--------------|
A|-----------------------------------4--4---4--4-|
E|-----------------------------------------------|


Outro

G|-----------------------------------------|
D|-----------------------------------------|
A|-4--4-4--4-4---------7--7-7--7-7---------|
E|--------------5-5--5--------------7-7--7-| x2

G|-------------------------------|
D|-------------------------------|
A|-4~-------7~-------4~-------7~-|
E|-------5--------7--------5-----| x2

And that’s it for another great Pigeon Detectives song :)


Key:
| \  slide down
| /  slide up
| h  hammer-on
| p  pull-off
| ~  let ring
            
Hard to play? Try these video lessons and learn fast. | Correct




comments powered by Disqus
↑ Back to top | Tablatures and chords are parodies/interpretations of the original songs. You may use it for private study, scholarship, research or language learning purposes only