» » »

I'm Always Right Tabs (ver.1)

Artists:  A B C D E F G H I J K L M N O P Q R S T U V W X Y Z # 

I'm Always Right Tabs (ver.1)

The Pigeon Detectives
Rating:
5/5 (4 votes)

Tabs too difficult? Try these video lessons and learn fast.
                Ive seen these guys play live, so this is right. Enjoy!

Main Riff (Ollie): 

e|----------------------------------------------------------|
B|--12--10------10--12-10--12--10------10--12-10------------|
G|----------11---------------------11-----------------------|
D|----------------------------------------------------------|
A|----------------------------------------------------------|
E|----------------------------------------------------------|

e|----------------------------------------------------------------|
B|--12--10----10--12-10-12-101010--12--10----10--12-10-12-101010--|
G|---------11-----------------------------11----------------------|
D|----------------------------------------------------------------|
A|----------------------------------------------------------------|
E|----------------------------------------------------------------|

Verse Rhythm (Ryan):

e|-x----------------------x-----------------------------------|
B|-x----------------------x-----------------------------------|
G|-6~---------------------6~----------------------------------|
D|-7~---------------------7~----------------------------------|
A|-7~---------------------7~----------------------------------|
E|-5~---------------------5~----------------------------------|

e|---x---------------------|
B|--10---------------------|
G|--11---------------------| (For the rhythm, listen to the song.
D|--11---------------------|  It is quite complicated but easy to
A|---9---------------------|   hear)
E|-------------------------|



Chorus (Ryan): 

e|----------------------------------------------------|
B|-9--9--9--9--9--9--9--9--10-10-10-10--7--7--7--7----|
G|-9--9--9--9--9--9--9--9--11-11-11-11--7--7--7--7----| (x4)
D|-9--9--9--9--9--9--9--9--11-11-11-11--7--7--7--7----|
A|-7--7--7--7--7--7--7--7--9--9--9--9---5--5--5--5----|
E|----------------------------------------------------|

I havent worked out ollie's part in the chorus but i'll get on that
soon!
            
Tabs too difficult? Try these video lessons and learn fast.


comments powered by Disqus
↑ Back to top | Tablatures and chords are parodies/interpretations of the original songs. You may use it for private study, scholarship, research or language learning purposes only