» » »

I'll Be Waiting Tabs (ver.1)

Artists:  A B C D E F G H I J K L M N O P Q R S T U V W X Y Z # 

I'll Be Waiting Tabs (ver.1)

The Pigeon Detectives
Rating:
5/5 (1 vote)

Hard to play? Try these video lessons and learn fast.
                -------------------------------------------------------------------------------
-------------------------------------------------------------------------------

Tuning:E

Riff
e|-------------------------------------------------------------------------|
B|-------------------------------------------------------------------------|
G|-------------------------------------------------------------------------|
D|-------------------------------------------------------------------------|
A|-------------------------------------------------------------------------|
E|\2-2-0-2-2-0-2-2-0-2-0-2-0-5-5-0-5-5-0-5-7-9-7-7\-0----------------------|

e|-------------------------------------------------------------------------|
B|-------------------------------------------------------------------------|
G|-------------------------------------------------------------------------|
D|-------------------------------------------------7---7-------------------|
A|---------------------------------------------7-9---9---------------------|
E|-2-2-0-2-2-0-2-2-0-2-0-2-0-5-5-0-5-5-0-5-7/9-----------------------------|


Verse: I know you think you're much better...
e|-2-22-2-22-2-22-22-22-5-55-5-55-5-55-55-55-------------------------------|
B|-2-22-2-22-2-22-22-22-5-55-5-55-5-55-55-55-------------------------------|
G|-2-22-2-22-2-22-22-22-6-66-6-66-6-66-66-66-------x4----------------------|
D|-4-44-4-44-4-44-44-44-7-77-7-77-7-77-77-77-------------------------------|
A|-4-44-4-44-4-44-44-44-7-77-7-77-7-77-77-77-------------------------------|
E|-2-22-2-22-2-22-22-22-5-55-5-55-5-55-55-55-------------------------------|
         F#m                    A

Chorus:
I'll Be waiting...
e|-55-44-22-00~-------x2---------------------------------------------------|
B|-77-55-44-22~------------------------------------------------------------|
G|-------------------------------------------------------------------------|
D|-------------------------------------------------------------------------|
A|-------------------------------------------------------------------------|
E|-------------------------------------------------------------------------|
       D

When You Wanna go....
e|--5555-5555--------------------------------------------------------------|
B|--5555-7777--------------------------------------------------------------|
G|--6666-6666--------------------------------------------------------------|
D|--7777-4444--------------------------------------------------------------|
A|--7777-4444--------------------------------------------------------------|
E|--5555-------------------------------------------------------------------|
     A   F#m

Riff 2
e|--9-9-9-9-9-9-9-9-9-9-9-9-9-9-9-9-9------------x2------------------------|
B|10-10-10-109-9-9-9-7-7-7-7-9-9-9-9---------------------------------------|
G|-------------------------------------------------------------------------|
D|-------------------------------------------------------------------------|
A|-------------------------------------------------------------------------|
E|-------------------------------------------------------------------------|

e|-7-----------------------------------------------------------------------|
B|---8---8-----7~----x4----------------------------------------------------|
G|-----------7-------------------------------------------------------------|
D|-----7---7---------------------------------------------------------------|
A|-------------------------------------------------------------------------|
E|-------------------------------------------------------------------------|

ORDER:
1. Riff
2. Verse
3. Chorus x2
4. Verse
5. Chorus x2
6. Riff 2
7. Chorus x2

LYRICS:
I know you think you're so much better
and we used to get on fine together
now i don't think that will work
you want to see me in the dirt
made suspicious by your awkward glances
im not sorry that we took our chance
now you're heads a bit of a mess
im gonna put it down to success

i'll be waiting for you
when you wanna go
when you wanna go
i'll be waiting for you
when you wanna go
when you wanna go

oh so petty and so pretentious
false opinion, the rising tension
i don't think that will work
you'll never get me in the dirt
made suspicious by your awkward glances 
in not sorry that we too out chance
now your heads a bit of a mess
im gonna put it down to success

i'll be waiting for you
when you wanna go
when you wanna go
i'll be waiting for you
when you wanna go
when you wanna go

i'll be waiting for you
when you wanna go
when you wanna go
i'll be waiting for you
when you wanna go
when you wanna go

| /  slide up
| \  slide down
| h  hammer-on
| p  pull-off
| ~  vibrato
| +  harmonic
| x  Mute note
===============================================================================
            
Hard to play? Try these video lessons and learn fast. | Correct




comments powered by Disqus
↑ Back to top | Tablatures and chords are parodies/interpretations of the original songs. You may use it for private study, scholarship, research or language learning purposes only