» » »

The Pigeon Detectives, Hello My Old Friend Tabs (ver.1)

Artists:  A B C D E F G H I J K L M N O P Q R S T U V W X Y Z # 

Hello My Old Friend Tabs (ver.1)

The Pigeon Detectives Tabs
 Rating:
4/5 (5 votes)
Hello My Old Friend lessons Tabs too difficult? Try these video lessons and learn fast
                I loved this song soo much but i couldn't find the chords anywhere..
and i thought, let's try to do it myself.
yes!
i got it!

hope you enjoy this song, it's beautiful!
:)
_________________________________________________________________________
-------------------------------------------------------------------------

Intro:

|--9--7--9--7--9--7--9--7--------------------------------------------------|
|--------------------------9--7--9----7-----7--9----7-----7--9--7-----7----|
|----------------------------------9-----9-------9-----9-----------9-------|
|--------------------------------------------------------------------------|
|--------------------------------------------------------------------------|
|--------------------------------------------------------------------------|

--9--7--9--7--9--7--9--7--------------------------------------------------|
--------------------------9--7--9----7-----7--9----7-----7--9-----7-------|
----------------------------------9-----9-------9-----9--------9----------|
--------------------------------------------------------------------------|
--------------------------------------------------------------------------|
--------------------------------------------------------------------------|

E              F#m
Hello my old friend,
     A
it's so nice to meet you,
    B
I hope that you're there when I,
E                 F#m
when I win in the end.
     A
You think you're so clever,
    B
it's now or it's never, oh..

C#m                   F#m
And I hope you'll be there (and I hope you'll be there)
C#m                   F#m
Oh, I hope you'll be there (yeah I hope you'll be there)
A             B          E
Like I'll be there for you.
A         B        E
I'll be there for you.
A         B        E
I'll be there for you.


__________________________________________________________________
------------------------------------------------------------------
            
Submit corrections

comments powered by Disqus
↑ Back to top | The Pigeon Detectives Tabs for Hello My Old Friend. Lyrics for acoustic guitar and electric guitar. Tablatures and chords are parodies/interpretations of the original songs. You may use it for private study, scholarship, research or language learning purposes only