» » »

The Pigeon Detectives, Everybody Wants Me Tabs (ver.1)

Artists:  A B C D E F G H I J K L M N O P Q R S T U V W X Y Z # 

Everybody Wants Me Tabs (ver.1)

The Pigeon Detectives Tabs
 Rating:
4/5 (4 votes)
Everybody Wants Me lessons Tabs too difficult? Try these video lessons and learn fast
1
                Intro:

|---------2-2--2--2-2--2--2-2--2-|
|-2-2--2--3-3--3--3-3--3--3-3--3-|
|-2-2--2--4-4--4--2-2--2--2-2--2-|
|-2-2--2--4-4--4-----------------|
|---------2-2--2-----------------|
|--------------------------------|

Repeat intro throughout verse.

Chorus:

|-----------------2-2-2-2-2-2-2-2-5-5-5-5-5-5-5-5-2-2-2-2-2-2-2-2-|     |
|-2-2-2-2-2-2-2-2-3-3-3-3-3-3-3-3-6-6-6-6-6-6-6-6-3-3-3-3-3-3-3-3-|     |
|-2-2-2-2-2-2-2-2-4-4-4-4-4-4-4-4-7-7-7-7-7-7-7-7-2-2-2-2-2-2-2-2-| X 2 |
|-2-2-2-2-2-2-2-2-4-4-4-4-4-4-4-4-7-7-7-7-7-7-7-7-----------------|     |
|-----------------2-2-2-2-2-2-2-2-5-5-5-5-5-5-5-5-----------------|     |
|-----------------------------------------------------------------|     |

Post Chorus:

|-------------------------------------------------|     |
|-10-10-12-12-14-14-17-17-10-10-12-12-14-14-17-17-|     |
|-------------------------------------------------| X 6 |
|-------------------------------------------------|     |
|-------------------------------------------------|     |
|-------------------------------------------------|     |

|----------------------------------------------|
|-10-10-12-12-14-14-17-17-10-10-12-12-14-14-17-|
|----------------------------------------------| Play once
|----------------------------------------------|
|----------------------------------------------|
|----------------------------------------------|
Verse 2:

Don't Play for the first half and then repeat intro/verse 1 on second half.

Chorus:

Same as before.

Post Chorus:

Same as before

Bridge:

|-------------------------------------------|     |
|-15--14--12-----15--14--12-----15-14-12----|     |
|------------14--------------14----------14-| X 4 |
|-------------------------------------------|     |
|-------------------------------------------|     |
|-------------------------------------------|     |

|---------------------------------------------------|
|----17----15----14----12-----------17----15--------|
|-14----14----14----14----14-11--14----14---14--14~~|
|---------------------------------------------------|
|---------------------------------------------------|
|---------------------------------------------------|

Solo:

|---------------------------------|
|-13--11--9--7--6--4--2~~~~~~~/4~~|
|---------------------------------|
|---------------------------------|
|---------------------------------|
|---------------------------------|

Verse 3:

No guitar (apart from bass)

Final Chorus:

Same again

Post Chorus:

Same again

End on

|---------------|
|---------------|
|-14~~~~~~~~~~~~|
|---------------|
|---------------|
|---------------|


I will also send you any other tabs for this band that i know if requested!

Thanks
            
Submit corrections

comments powered by Disqus
↑ Back to top | The Pigeon Detectives Tabs for Everybody Wants Me. Lyrics for acoustic guitar and electric guitar. 1 Tablatures and chords are parodies/interpretations of the original songs. You may use it for private study, scholarship, research or language learning purposes only