» » »

The Pigeon Detectives, Caught In Your Trap Tabs (ver.1)

Artists:  A B C D E F G H I J K L M N O P Q R S T U V W X Y Z # 

Caught In Your Trap Tabs (ver.1)

The Pigeon Detectives Tabs
Rating:
3/5 (1 vote)
Caught In Your Trap lessons Tabs too difficult? Try these video lessons and learn fast
                -------------------------------------------------------------------------------
-------------------------------------------------------------------------------

Tuning:EADGBE


Intro - No Lyrics (Lead Guitar)
e|--5-5---5-5---5-5---5-5--|--5-5---5-5---5-5---5-5---5-5---5-5---5-----------|
B|--5-5---5-5---5-5---5-5--|--5-5---5-5---5-5---5-5---5-5---5-5---5-----------|
G|-------------------------|--------------------------------------------------|
D|-------------------------|--------------------------------------------------|
A|-------------------------|--------------------------------------------------|
E|-------------------------|--------------------------------------------------|
Intro - No Lyrics (Rhythm Guitar)
e|-------------------------|--------------------------------------------------|
B|-------------------------|--------------------------------------------------|
G|--Nothing-To-Play--------|--------------------------------------------------|
D|-------------------------|--7775---5----7775---5----7775---5---7------------|
A|-------------------------|-----777----------777---------777-----------------|
E|-------------------------|--------------------------------------------------|










Verse - You know that... (Lead Guitar)
e|--5-5---5-5---4-4---4-4------5-5-4-0---4-5-5-4-0-----|----|
B|--5-5---5-5---5-5---5-5------5-5-5-0---5-5-5-5-0-----|----|
G|-----------------------------------------------------|----|
D|-----------------------------------------------------|-x2-|
A|-----------------------------------------------------|----|
E|-----------------------------------------------------|----|
Verse - You Know That... (Rhythm Guitar)
e|-----5-5---5-5---4-4---4-4---5-5-4-0---4-5-5-4-0-----|----|
B|-----5-5---5-5---5-5---5-5---5-5-5-0---5-5-5-5-0-----|----|
G|-----------------------------------------------------|----|
D|-----------------------------------------------------|-x2-|
A|-----------------------------------------------------|----|
E|-----------------------------------------------------|----|











Chorus - I Just Can`t Get You... (Lead Guitar)
e|---------------------------------------|-----|
B|---------------------------------------|-----|
G|-7-7-7-7-7-7-7-7-9-----(Bass-Fill)-----|-----|
D|-7-7-7-7-7-7-7-7-9------------0--------|-x4--|
A|-5-5-5-5-5-5-5-5-7--------0h2----------|-----|
E|---------------------------------------|-----|
Chorus - I Just Can`t Get You... (Rhythm Guitar)
e|---------------------------------------|-----|
B|---------------------------------------|-----|
G|-7-7-7-7-7-7-7-7-9---------------------|-----|
D|-7-7-7-7-7-7-7-7-9---------------------|-x4--|
A|-5-5-5-5-5-5-5-5-7---------------------|-----|
E|---------------------------------------|-----|











Middle - No Lyrics (Lead Guitar)
e|--5-5---5-5---5-5---5-5---5-5---5-5---5-5---5-5-------|
B|--5-5---5-5---5-5---5-5---5-5---5-5---5-5---5-5-------|
G|------------------------------------------------------|
D|------------------------------------------------------|
A|------------------------------------------------------|
E|------------------------------------------------------|
Middle - No Lyrics (Rhythm Guitar)
e|-----5-5---5-5---5-5---5-5---5-5---5-5---5-5---5-5----|
B|-----5-5---5-5---5-5---5-5---5-5---5-5---5-5---5-5----|
G|------------------------------------------------------|
D|------------------------------------------------------|
A|--Bass Plays Rhythm Guitar Riff In Intro--------------|
E|------------------------------------------------------|











Verse - It Started Out... (Lead Guitar)
e|--5-5---5-5---4-4---4-4------5-5-4-0---4-5-5-4-0-----|----|
B|--5-5---5-5---5-5---5-5------5-5-5-0---5-5-5-5-0-----|----|
G|-----------------------------------------------------|----|
D|-----------------------------------------------------|-x2-|
A|-----------------------------------------------------|----|
E|-----------------------------------------------------|----|
Verse - It Started Out... (Rhythm Guitar)
e|-----5-5---5-5---4-4---4-4---5-5-4-0---4-5-5-4-0-----|----|
B|-----5-5---5-5---5-5---5-5---5-5-5-0---5-5-5-5-0-----|----|
G|-----------------------------------------------------|----|
D|-----------------------------------------------------|-x2-|
A|-----------------------------------------------------|----|
E|-----------------------------------------------------|----|











Chorus - I Just Can`t Get You... (Lead Guitar)
e|---------------------------------------|-----|
B|---------------------------------------|-----|
G|-7-7-7-7-7-7-7-7-9-----(Bass-Fill)-----|-----|
D|-7-7-7-7-7-7-7-7-9------------0--------|-x4--|
A|-5-5-5-5-5-5-5-5-7--------0h2----------|-----|
E|---------------------------------------|-----|
Chorus - I Just Can`t Get You... (Rhythm Guitar)
e|---------------------------------------|-----|
B|---------------------------------------|-----|
G|-7-7-7-7-7-7-7-7-9---------------------|-----|
D|-7-7-7-7-7-7-7-7-9---------------------|-x4--|
A|-5-5-5-5-5-5-5-5-7---------------------|-----|
E|---------------------------------------|-----|










Middle - No Lyrics (Both Guitars)
e|--0--0--0--0--0--0--0--0---|-----|
B|--2--2--2--2--2--2--2--2---|-----|
G|--2--2--2--2--2--2--2--2---|-----|
D|--2--2--2--2--2--2--2--2---|-x2--|
A|--0--0--0--0--0--0--0--0---|-----|
E|-----Off Beats-------------|-----|

Middle Part 2 - I Know I`l Get... (Both Guitars)
e|------------------------|-9--------------|-----|
B|------------------------|-10-------------|-----|
G|-7-----7-----7-----7--9-|-11-strum-x16---|-----|
D|-7--7--7--7--7--7--7--9-|-11-------------|-x4--|
A|-5--0--5--0--5--0--5--7-|-9--------------|-----|
E|------------------------|----------------|-----|












Chorus - I Just Can`t Get You... (Lead Guitar)
e|-5-5-7-7-5-5-7-7--7-7-9-9-7-7-9-9------|-----|
B|-7-7-7-7-7-7-7-7--7-7-7-7-7-7-7-7------|-----|
G|---------------------------------------|-----|
D|---------------------------------------|-x4--|
A|---------------------------------------|-----|
E|---------------------------------------|-----|
Chorus - I Just Can`t Get You... (Rhythm Guitar)
e|---------------------------------------|-----|
B|---------------------------------------|-----|
G|-7-7-7-7-7-7-7-7-9-9-9-9-9-9-9-9-------|-----|
D|-7-7-7-7-7-7-7-7-9-9-9-9-9-9-9-9-------|-x4--|
A|-5-5-5-5-5-5-5-5-7-7-7-7-7-7-7-7-------|-----|
E|---------------------------------------|-----|










Outro - No Lyrics (Lead Guitar)
e|--------------------------------------------------|
B|-------------------------------------10-10-10-----|
G|-7b5---7b5---7b5---7b5---7b5---7b5---9--9--9------|
D|-------------------------------------7--7--7------|
A|-------------------------------------0--0--0------|
E|--------------------------------------------------|
Intro - No Lyrics (Rhythm Guitar)
e|--------------------------------------------------|
B|--------------------------------------------------|
G|-------------------------------------2--2--2------|
D|--7775---5----7775---5----7775---5---2--2--2------|
A|------777---------777---------777----0--0--0------|
E|--------------------------------------------------|




| /  slide up
| \  slide down
| h  hammer-on
| p  pull-off
| ~  vibrato
| +  harmonic
| x  Mute note
===============================================================================
            
Submit corrections

comments powered by Disqus
↑ Back to top | The Pigeon Detectives Tabs for Caught In Your Trap. Lyrics for acoustic guitar and electric guitar. Tablatures and chords are parodies/interpretations of the original songs. You may use it for private study, scholarship, research or language learning purposes only