» » »

The Osmonds, Crazy Horses Tabs (ver.2)

Artists:  A B C D E F G H I J K L M N O P Q R S T U V W X Y Z # 

Crazy Horses Tabs (ver.2)

The Osmonds Tabs
 Rating:
4/5 (8 votes)
Crazy Horses lessons Tabs too difficult? Try these video lessons and learn fast
                The Osmonds - Crazy Horses

Tablature legend:

x/17    = slide                    (from nowhere to 17)
10/12   = slide                    (from 10 to 12, hit 10&12)
p       = pull-of                  (optional in the solo) 
x       = muted note               (played not to hard)
P.M.    = Palm Mute                (P.M. notes above the .`s)  
~*      = vibrato with tremolo arm (or a really hard vibrato)
~*\~*\  = vibrato with tremolo arm and pull tremolo arm down
      \

Intro riff:
     
e|-x/17~*~*~-|-x/17~*~*-|-x/17~*\~*\~*\~*-|
B|-----------|----------|-----------\--\--|
G|-----------|----------|---------------\-|
D|-----------|----------|-----------------| x2
A|-----------|----------|-----------------|
E|-----------|----------|-----------------|

e|-----------------|-----------------|
B|-----------------|-----------------|
G|-----------------|-----------------|
D|-5-7-x-7-x-7-x-7-|-5-7-x-7-x-7-x-7-|
A|-5-7-x-7-x-7-x-7-|-5-7-x-7-x-7-x-7-|
E|-3-5-x-5-x-5-x-5-|-3-5-x-5-x-5-x-5-| x2

Verse:

e|-----------------|-----------------|
B|-----------------|-----------------|
G|-----------------|-----------------|
D|-5-7-x-7-x-7-x-7-|-5-7-x-7-x-7-x-7-|
A|-5-7-x-7-x-7-x-7-|-5-7-x-7-x-7-x-7-|
E|-3-5-x-5-x-5-x-5-|-3-5-x-5-x-5-x-5-|

e|-----------------|-----------|---------|
B|-----------------|-----------|---------|
G|-----------------|-----------|-5--7----|
D|-5-7-x-7-x-7-x-7-|-5-7--5-7--|-5--7-7--|
A|-5-7-x-7-x-7-x-7-|-5-7--5-7--|-3--5-7--|
E|-3-5-x-5-x-5-x-5-|-3-5--3-7--|------5--| x2

Pre-chorus:

e|-----------------|-----------------|-----------------|
B|-----------------|-----------------|-----------------|
G|-----------------|-----------------|-----------------|
D|-3-3-3-3-3-3-3-3-|-5-5-5-5-5-5-5-5-|-7-7-7-7-7-7-7-7-|
A|-3-3-3-3-3-3-3-3-|-5-5-5-5-5-5-5-5-|-7-7-7-7-7-7-7-7-|
E|-1-1-1-1-1-1-1-1-|-3-3-3-3-3-3-3-3-|-5-5-5-5-5-5-5-5-|
 P.M. .................................................

e|------------------|
B|------------------|
G|-------2--------2-|
D|-3-3-3-2--3-3-3-2-|
A|-3-3-3-0--3-3-3-0-|
E|-1-1-1----1-1-1---| x2
 
Chorus:

e|-----------------|--x/17~*-|-x/17~*-|
B|-----------------|---------|--------|
G|-----------------|---------|--------|
D|-5-7-x-7-x-7-x-7-|---------|--------| 
A|-5-7-x-7-x-7-x-7-|---------|--------|
E|-3-5-x-5-x-5-x-5-|---------|--------| x2

Verse

Pre-chorus

Solo: (not too sure about this)

e|----x/12--10-12-10----------|-------------------------|
B|-12----------------12-10----|-------------------------|
G|-------------------------12-|-------------------------|
D|----------------------------|-14-12-14-12-14----------|
A|----------------------------|----------------14-12----|
E|----------------------------|----------------------14-|

e|---------------|-----------------------|
B|---------------|-----------------------|
G|-12\10--12\10--|-12--10-12-10----------|
D|-12\10--12\10--|-12--10-12-10-12p10----|
A|---------------|--------------------12-|
E|---------------|-----------------------| x2

Bridge:

e|-----------------|-----------------|-----------\    Fade out
B|-----------------|-----------------|------------\   but keep 
G|-----------------|-----------------|-------------\ strumming
D|-3-3-3-3-3-3-3-3-|-5-5-5-5-5-5-5-5-|-7-7-7-7-7---/  for a,
A|-3-3-3-3-3-3-3-3-|-5-5-5-5-5-5-5-5-|-7-7-7-7-7--/   little 
E|-1-1-1-1-1-1-1-1-|-3-3-3-3-3-3-3-3-|-5-5-5-5-5-/    while.
P.M. .................................. . . 

e|---------------|
B|---------------|
G|---------------|
D|-9\8\7\6\5\4\3-|
A|-9\8\7\6\5\4\3-|
E|-7\6\5\4\3\2\1-|

Chorus, until it’s totally faded out.
           
            
Submit corrections

comments powered by Disqus
↑ Back to top | The Osmonds Tabs for Crazy Horses. Lyrics for acoustic guitar and electric guitar. Tablatures and chords are parodies/interpretations of the original songs. You may use it for private study, scholarship, research or language learning purposes only