» » »

The Naked Brothers Band, I'm Out Tabs (ver.1)

Artists:  A B C D E F G H I J K L M N O P Q R S T U V W X Y Z # 

I'm Out Tabs (ver.1)

The Naked Brothers Band Tabs
Rating:
3/5 (2 votes)
I'm Out lessons Tabs too difficult? Try these video lessons and learn fast
                Intro: play 2 times

1st guitar
e|-3--------3-------|-1-------------------|
B|-3--------5-------|-1-------------------|
G|-4--------5-------|-2-------------------|
D|-5--------5-------|-3-------------------|
A|-5--------3-------|-3-------------------|
E|-3----------------|---------------------|
   G        C         F

2nd guitar
e|-------------0----|----1-----------1----|
B|----3-----1-------|-1-----------1-------|
G|-4--------------0-|-------2-2---------2-|
D|-------5----------|---------------------|
A|------------------|---------------------|
E|------------------|---------------------|

Verse:

G         C     F  
If you're gonna treat me that way then I'm out.

1st guitar
e|-3--------3--------|-1-----------------|
B|-3--------5--------|-1-----------------|
G|-4--------5--------|-2-----------------|
D|-5--------5--------|-3-----------------|
A|-5--------3--------|-3-----------------|
E|-3-----------------|-------------------|
   G        C          F

2nd guitar
e|-------------------|-------------------|
B|-------------------|-------------------|
G|-------------------|-------------------|
D|-------------------|-------------------|
A|----1--3--3b--1----|----1--3--3b--1----|
E|-3---------------3-|-3---------------3-|

G         C     F
If you're gonna leave me that way then I'm out.

1st guitar
e|-3--------3--------|-1-----------------|
B|-3--------5--------|-1-----------------|
G|-4--------5--------|-2-----------------|
D|-5--------5--------|-3-----------------|
A|-5--------3--------|-3-----------------|
E|-3-----------------|-------------------|
   G        C          F

2nd guitar
e|-------------------|-------------------|
B|-------------------|-------------------|
G|-------------------|-------------------|
D|-------------------|-------------------|
A|----1--3--3b--1----|----1--3--3b--1----|
E|-3---------------3-|-3---------------3-|

C
Cause I won't take your crying anymore.
D
No I won't take your whining anymore.

          G    C    F
Cause I'm out.
    G    C    F
I'm out.
       G    C    F
Oh I'm out.
    G    C    F
I'm out.

C
Cause I won't take your cring anymore.
D
No I won't take your whining anymore.

          G    C    F
Cause I'm out.
    G    C    F
I'm out.
       G    C    F
Oh I'm out.
    G    C    F
I'm out.

Repeat song over from the intro.
            
Submit corrections

comments powered by Disqus
↑ Back to top | The Naked Brothers Band Tabs for I'm Out. Lyrics for acoustic guitar and electric guitar. Tablatures and chords are parodies/interpretations of the original songs. You may use it for private study, scholarship, research or language learning purposes only