» » »

The Naked Brothers Band, I Feel Alone Tabs (ver.1)

Artists:  A B C D E F G H I J K L M N O P Q R S T U V W X Y Z # 

I Feel Alone Tabs (ver.1)

The Naked Brothers Band Tabs
 Rating:
4/5 (4 votes)
I Feel Alone lessons Tabs too difficult? Try these video lessons and learn fast
                -------------------------------------------------------------------------------
                             I Feel Alone By The Naked Brothers Band
-------------------------------------------------------------------------------

Tuning:Standered
                                   INTRO/VERSE:
e|----X------------------X-----------------------X---------------X------------------|
B|---------4------------------------------------------------------------------------|
G|--------------5---------------5--------------------12-----------------7-----------|
D|--------------5------------------6----------------------13--------------8---------|
A|---------------------------------6----------------------13--------------8---------|
E|----X------------------X-----------------------X---------------X------------------|
3RD FRET         4TH FRET           11TH FRET      6TH FRET
                                   BRIDGE:
e|--X-----------------X-------------X-------------------X--------------------------|
B|---------------------------------------------------------------------------------|
G|---------------------------5--------------8--------------------------------------|
D|----------3----------------5--------------8---------------------8----------------|
A|----------3-----------------------------------------------------8----------------|
E|--X-----------------X-------------X-------------------X--------------------------|
1ST FRET  3RD FRET     6TH FRET        6TH FRET
                                   CHORUS:
e|-------------X--------------------------X----------------------X----------------|
B|--------------------------------------------------------------------------------|
G|--------------------------8-----------------------------------------------------|
D|--------------------------8-----------------------6--------------------8--------|
A|--------------------------------------------------6--------------------8--------|
E|-------------X--------------------------X----------------------X----------------|
6TH FRET            4TH FRET                6TH FRET

| /  slide up
| \  slide down
| h  hammer-on
| p  pull-off
| ~  vibrato
| +  harmonic
| x  Mute note         TY FR LOOKING!!
===============================================================================
            
Submit corrections

comments powered by Disqus
↑ Back to top | The Naked Brothers Band Tabs for I Feel Alone. Lyrics for acoustic guitar and electric guitar. Tablatures and chords are parodies/interpretations of the original songs. You may use it for private study, scholarship, research or language learning purposes only