» » »

I Could Be Tabs (ver.1)

Artists:  A B C D E F G H I J K L M N O P Q R S T U V W X Y Z # 

I Could Be Tabs (ver.1)

The Naked Brothers Band
Rating:
3/5 (2 votes)

Hard to play? Try these video lessons and learn fast.
                e|-----------------------------------------------------------------------|
B|-----------------------------------------------------------------------|
G|-----------------------------------------------------------------------|
D|-7-------------------------------7---------------------------------7---|
A|-7-------------------------------7---------------------------------7---|
E|-5-5-5-5-5-5-5-5-5-5-5-5-5-5-5-5-5-5-5-5-5-5-5-5-5-5-5-5-5-5-5-5-5-5-5-|



e|-----------------------------------------------------------------------|
B|-----------------------------------------------------------------------|
G|-------------------------------------------------------------4---------|
D|-------------4---------------7---------------4---------------4---------|
A|-------------4---------------7---------------4---------------2-2-2-2-2-|
E|-5-5-5-5-5-5-2-2-2-2-2-2-2-2-5-5-5-5-5-5-5-5-2-2-2-2-2-2-2-2-----------|



e|-------------------------------------------------------|
B|-------------------------------------------------------|
G|-----------------------4-------------------------------|
D|-----------------------4-------------------------------|
A|-2-2-2-2-2-2-2-2-2-2-2-2-2-2-2-2-2-2-2-2-2-2-2-2-2-2-2-|
E|-------------------------------------------------------|



e|-----------------------------------------------------------------------|
B|-----------------------------------------------------------------------|
G|-----------------------------------------------------------------------|
D|-7---7---7--7---7---7--7---7---7--7---7---7--7---7---7--7---7---7--7---|
A|-7---7---7--7---7---7--7---7---7--7---7---7--7---7---7--7---7---7--7---|
E|-5---5---5--5---5---5--5---5---5--5---5---5--5---5---5--5---5---5--5---|
      |Repeat-------------|

e|-----------------------------------------------------------------------|
B|-----------------------------------------------------------------------|
G|-----------------------------------------------------------------------|
D|-----------------------------------------------------------------------|
A|-----------------------------------------------------------------------|
E|-5-5-5-5-5-5-5-5-5-5-5-5-5-5-5-5-5-5-5-5-5-5-5-5-5-5-5-5-5-5-5-5-5-5-5-|




Repeat the whole tab
            
Hard to play? Try these video lessons and learn fast. | Correct




comments powered by Disqus
↑ Back to top | Tablatures and chords are parodies/interpretations of the original songs. You may use it for private study, scholarship, research or language learning purposes only