» » »

The Naked Brothers Band, Eventually Chords (ver.1)

Artists:  A B C D E F G H I J K L M N O P Q R S T U V W X Y Z # 

Eventually Chords (ver.1)

The Naked Brothers Band Tabs
 Rating:
4/5 (4 votes)
Eventually lessons Tabs too difficult? Try these video lessons and learn fast
                The Naked Brothers Band

There is nothing wrong with liking good songs
This is really catchy, and if you're reading this tab
then you have nothing to worry about, i'm on your side.
Now i always play in Eb, and it turns out that the song
is in Eb, so i'm tabbing it out for a half-step tuned guitar.

Enjoy :)


Main chord Progression

eb-------7---2---5-----|
Bb---9---7---2---5-----|
Gb---9---8---2---6-----|
Db---9---9---4---7-----|
Ab---7---9---4---7-----|
Eb-------7---2---5-----|


Verse progression

-------5---2---7---|
---9---5---2---7---|
---9---6---2---8---|
---9---7---4---9---|
---7---7---4---9---|
-------5---2---7---|


Bridge progression
--5---7---4---7-----------------|
--5---7---5---7-----------------|
--6---8---6---8-----------------|
--7---9---6---9-----------------|
--7---9---4---9-----------------|
--5---7-------7-----------------|


That's all there is to it so just have fun with it
I like doing little licks here and there
And Remember, THERES NOTHING WRONG WITH LIKING THIS SONG!
:)

Have Fun,
Gerra
            
Submit corrections

comments powered by Disqus
↑ Back to top | The Naked Brothers Band Chords for Eventually. Lyrics for acoustic guitar and electric guitar. Tablatures and chords are parodies/interpretations of the original songs. You may use it for private study, scholarship, research or language learning purposes only