» » »

The Naked Brothers Band, Crazy Car Bass tabs (ver.1)

Artists:  A B C D E F G H I J K L M N O P Q R S T U V W X Y Z # 

Crazy Car Bass tabs (ver.1)

The Naked Brothers Band Tabs
 Rating:
4.2/5 (5 votes)
Crazy Car lessons Tabs too difficult? Try these video lessons and learn fast
                any corrections welcome

G|------------------------|
D|3--02--------23--02-----|
A|-------35------------35-|
E|------------------------|

G|---------|
D|23-02----|
A|------35-|x2
E|---------|

G|--------------|
D|--------------|
A|--012-1235-20-|x3
E|3-------------|

G|-----------|
D|-----------|
A|--012-1235-|
E|3----------|

G|--------------|
D|3-02--02---02-|
A|-----0--5-0---|
E|--------------|

G|--------------|
D|3-02--02------|
A|-----0--5-3/5-|
E|--------------|

G|------------|
D|03----------|
A|---012-1265-|x3
E|------------|

G|---------------|
D|03-------------|
A|---012-1265-20-|
E|---------------|

G|--------------|
D|--------------|
A|--012-1235-20-|x3
E|3-------------|

G|-----------|
D|-----------|
A|--012-1235-|
E|3----------|

G|--------------|
D|3-02--02---02-|
A|-----0--5-0---|
E|--------------|

G|--------------|
D|3-02--02------|
A|-----0--5-3/5-|
E|--------------|

G|------------|
D|03----------|
A|---012-1265-|x7
E|------------|


| /  slide up
| \  slide down
| h  hammer-on
| p  pull-off
| ~  vibrato
| +  harmonic
| x  Mute note
            
Submit corrections

comments powered by Disqus
↑ Back to top | The Naked Brothers Band Bass for Crazy Car. Lyrics for acoustic guitar and electric guitar. Tablatures and chords are parodies/interpretations of the original songs. You may use it for private study, scholarship, research or language learning purposes only