>
 >
Spotty Face

Spotty Face Guitar Tabs

The Monks - Spotty Face chords, tabs, tablatures, lyrics

Guitar lessons | Add/correct | Request | Top 50 tabs Artists:  A B C D E F G H I J K L M N O P Q R S T U V W X Y Z 0-9

Spotty Face Guitar Tabs – The Monks

CD, Sheet music, Poster

Do you like Spotty Face? Share with your friends now
Tabs
Band - The Monks (UK)
Song - Spotty Face

One Of My Personal Favorites From The Monks :)

It Follows The Simple Blues Chord Progression: A D E

. = Palm Mute
w = Whammy Bar

Intro
|-5------------|
|-5----7----9--|
|-6----7----9--|
|-7----7----9--|
|-7----5----7--|
|-5------------|

Verse
|-555---------------555------------------------5555555-----------|
|-555--777--999999--555--777--999999--7777777--5555555--9999999--|
|-666--777--999999--666--777--999999--7777777--6666666--9999999--|
|-777--777--999999--777--777--999999--7777777--7777777--9999999--|
|-777--555--777777--777--555--777777--5555555--7777777--7777777--|
|-555---------------555------------------------5555555-----------|

Chorus 1
"Cause He's Much Too Skinny"
|---------5555555----------5555555----------5555555-------------------|
|-7777777-5555555--7777777-5555555--7777777-5555555--999999999999999--|
|-7777777-6666666--7777777-6666666--7777777-6666666--999999999999999--|
|-7777777-7777777--7777777-7777777--7777777-7777777--999999999999999--|
|-5555555-7777777--5555555-7777777--5555555-7777777--777777777777777--|
|---------5555555----------5555555----------5555555-------------------|

Chorus 2
"Spotty Face Weakling"
|----------------12121212121212--|
|-14141414141414-12121212121212--|
|-14141414141414-13131313131313--|
|-14141414141414-14141414141414--|
|-12121212121212-14141414141414--|
|----------------12121212121212--|

Post Chorus
"Just Ain't Right"
|---------5555555--12121212---|
|-7777777-5555555--12121212---|
|-7777777-6666666--13131313---|
|-7777777-7777777--14141414---|
|-5555555-7777777--14141414---|
|---------5555555--12121212---|

Solo
Alright!
|-----------------|----------------------|------------------------|
|-----------------|----------------------|-1515-1515-1414-14-12w--|
|-----------------|----------------------|-1515-1515-1414-14-12w--|
|-----------------|----------------------|-1515-1515-1414-14-12w--|
|-----------------|----------------------|-1313-1313-1212-12-10w--|
|-0-5-7-9-7-5-7-4-|-0-5-7-9-7-5-7-10-4-4-|------------------------|

Bridge
"They Even Took Him To A Dance"
|--------------------|-----------------------------|
|------6666-99999999-|-77777777--------------------|
|-7777-7777-99999999-|-77777777-66666666-99999999--|
|-7777-7777-99999999-|-77777777-77777777-99999999--|
|-7777-5555-77777777-|-55555555-77777777-77777777--|
|-5555---------------|----------55555555-----------|
  .... .... ........   ........ ........ ........

|--------------------|-----------------------------|
|-6666-7777-99999999-|-66666666----------99999999--|
|-7777-7777-99999999-|-77777777-66666666-99999999--|
|-7777-7777-99999999-|-77777777-77777777-99999999--|
|-7777-5555-77777777-|-55555555-77777777-77777777--|
|-5555---------------|----------55555555-----------|
  .... .... ........   ........ ........ ........

Outro
|----------|
|-99--14---|
|-99--14---|
|-99--14---|
|-77--12---|
|----------| 

Structure

Intro x3
Verse x2
Chorus 
Chorus 2 x4
Post Chorus
Verse x2
Chorus 1
Chorus 2 x4
Post Chorus
Solo
Chorus 1
Bridge
Chorus 1
Chorus 2 x4
Post Chorus
Outro


There You Go!

Rate And Comments Please!





Comments


Popular The Monks tabs & chords
Monk Chant Bass Tabs
Johnny B Rotten Chords
Love In Stereo Chords
Nice Legs Shame About The Face Chords
I Hate You Tabs
Nice Legs Shame About Her Face Intro Tabs
Johnny B Rotten Ukulele
Love In Stereo Ukulele
Nice Legs Shame About The Face Ukulele


Song lyrics



↑ Back to top | Tablatures and chords are parodies/interpretations of the original songs. You may use it for private study, scholarship, research or language learning purposes only
© 2014 AZChords.com Contact us | Privacy policy | DMCA | Add/correct tabs | Request tabs | Top 50 tabs