» » »

Pony Tabs (ver.1)

Artists:  A B C D E F G H I J K L M N O P Q R S T U V W X Y Z # 

Pony Tabs (ver.1)

The Mongols
Rating:
0/5 (0 votes)

Hard to play? Try these video lessons and learn fast.
                


Tuning: Standard   E A D G B e
Guitar1: Rhythm
Guitar2: Lead

*just listen to your copy for chord progression
*salamat sa ABZD at Tumbleweeds, you rock!
*the Mongols rocks!
*OPM rocks!
*God bless!

Chords:

    DM7   G    F#m
e|---2----3-------------|
B|---2----3-------------|
G|---2------------------|
D|---0----------4-------|
A|--------2-----4-------|
E|--------3-----2-------|

INTRO:
Guitar1 DM7-G
e|---2------------------------------|--3-------------------------------|\
B|---2------------------------------|--3-------------------------------| \
G|---2------------------------------|----------------------------------|  \  2x
D|---0------------------------------|----------------------------------|  /
A|----------------------------------|--2-------------------------------| /
E|----------------------------------|--3-------------------------------|/
                                                                              
Guitar2
    DM7				      G		
e|---2/5-5/7-7\5-5\2-2/5-5/7-7\5-5\-|--3/5-5/7-7\5-5\3-3/5-5/7-7\5-5\--|\
B|---2/5-5/7-7\5-5\2-2/5-5/7-7\5-5\-|--3/5-5/7-7\5-5\3-3/5-5/7-7\5-5\--| \
G|----------------------------------|----------------------------------|  \  2x
D|----------------------------------|----------------------------------|  /
A|----------------------------------|----------------------------------| /
E|----------------------------------|----------------------------------|/


VERSE1:                                                                           

   
Guitar2
|----------2-----2-------2---------|----------3-----3-------3-------3-|
|------2-----2-------2-------2-----|------3-----3-------3-------3-----|
|----2---2-----2-------2-------2---|----0---0-----0-------0-------0---|
|--0-------------------------------|----------------------------------|
|----------------------------------|----------------------------------|
|----------------------------------|--3-------------------------------|
 Pony she says  She says she wants to walk                                        

                                  

|----------2-----2-------2---------|----------0-----0-------0-------0-|
|------2-----2-------2-------2-----|------3-----3-------3-------3-----|
|----2---2-----2-------2-------2---|----0---0-----0-------0-------0---|
|--0-------------------------------|----------------------------------|
|----------------------------------|----------------------------------|
|----------------------------------|--3-------------------------------|
 Right by the side of the             road                                        

                                     

|----------2-----2---------5-------|----------3-----3-------3-------3-|
|------2-----2-------2---2----2----|------3-----3-------3-------3-----|
|----2---2-----2-------2--------2--|----0---0-----0-------0-------0---|
|--0-------------------------------|----------------------------------|
|----------------------------------|----------------------------------|
|----------------------------------|--3-------------------------------|
 Faces cars and trucks and vans and     trucks and vans                           

                                              

|----------2-----2-------2---------|----------0-----0-------0-------0-|
|------2-----2-------2-------2-----|------3-----3-------3-------3-----|
|----2---2-----2-------2-------2---|----0---0-----0-------0-------0---|
|--0-------------------------------|----------------------------------|
|----------------------------------|----------------------------------|
|----------------------------------|--3-------------------------------|
   Flashes them her most hopeful      V-sign 


CHORUS:                                                                          
Guitar2
|--------0-----0-----0-----0-------|----------0---------------0-------|
|----2-----2-----2-----2-----2-----|----3---3---3---3---3---3---3---3-|
|--2---2-----2-----2-----2-----2---|--0---0-------0---0---0-------0---|
|----------------------------------|----------------------------------|
|----------------------------------|----------------------------------|
|----------------------------------|----------------------------------|
                                                                              
Guitar1: F#m-G (powerchords)
|----------------------------------|----------------------------------|
|----------------------------------|--0-------------------------------|
|----------------------------------|--0-------------------------------|
|--4-------------------------------|--5-------------------------------|
|--4-------------------------------|--5-------------------------------|
|--2-------------------------------|--3-------------------------------|
   We all deserve a little bit        more                                        

                                   


INTRO2:
Guitar1 DM7-G
e|---2------------------------------|--3-------------------------------|
B|---2------------------------------|--3-------------------------------|
G|---2------------------------------|----------------------------------|
D|---0------------------------------|----------------------------------|
A|----------------------------------|--2-------------------------------|
E|----------------------------------|--3-------------------------------|
                                                                              
Guitar2
    DM7				      G		
|---2/5-5/7-7\5-5\2-2/5-5/7-7\5-5\-|--3/5-5/7-7\5-5\3-3/5-5/7-7\5-5\--|
|---2/5-5/7-7\5-5\2-2/5-5/7-7\5-5\-|--3/5-5/7-7\5-5\3-3/5-5/7-7\5-5\--|
|----------------------------------|----------------------------------|
|----------------------------------|----------------------------------|
|----------------------------------|----------------------------------|
|----------------------------------|----------------------------------|


VERSE2:                                                                           

   
Guitar2
|----------2-----2-------2---------|----------3-----3-------3-------3-|
|------2-----2-------2-------2-----|------3-----3-------3-------3-----|
|----2---2-----2-------2-------2---|----0---0-----0-------0-------0---|
|--0-------------------------------|----------------------------------|
|----------------------------------|----------------------------------|
|----------------------------------|--3-------------------------------|
   Pony she says She's got no place to go                                         

                              

|----------2-----2-------2---------|----------0-----0-------0-------0-|
|------2-----2-------2-------2-----|------3-----3-------3-------3-----|
|----2---2-----2-------2-------2---|----0---0-----0-------0-------0---|
|--0-------------------------------|----------------------------------|
|----------------------------------|----------------------------------|
|----------------------------------|--3-------------------------------|
   Knows no friends and knows no      foes                                        

                           

|----------2-----2---------5-------|----------3-----3---------5-------|
|------2-----2-------2---2----2----|------3-----3---------3-----------|
|----2---2-----2-------2--------2--|----0---0-----0-------------------|
|--0-------------------------------|----------------------------------|
|----------------------------------|----------------------------------|
|----------------------------------|--3-------------------------------|
   Crashes to the heart of you with pots and pans with pots and  pans             

                                                    

|----------2-----2-------2---------|----------0-----0-------0-------0-|
|------2-----2-------2-------2-----|------3-----3-------3-------3-----|
|----2---2-----2-------2-------2---|----0---0-----0-------0-------0---|
|--0-------------------------------|----------------------------------|
|----------------------------------|----------------------------------|
|----------------------------------|--3-------------------------------|
   Flushes down a tablet for her sorrow

Lead Thingy on the verse2:
(1)
|-----------------------------------------------------------|
|-----------12-\10-----------12-\10--10/12--12\10--10/12----|
|---7-/14-------------7-/14---------------------------------|
|-----------------------------------------------------------|
|-----------------------------------------------------------|
|-----------------------------------------------------------|
(2)
|---------------------------------|
|-----------12-\10----12-\10------|
|---7-/14-------------------------|
|---------------------------------|
|---------------------------------|
|---------------------------------|


CHORUS: do chorus lead and rhythm>>>>then..

BRIDGE1:
Guitar1
|------------------------------------------|\
|------------------------------------------| \
|------------------------------------------|  \  3x
|--7/9--9-9--7/9--9-9--7/9-99--12-121212---|  /
|--7/9--9-9--7/9--9-9--7/9-99--12-121212---| /
|--5/7--7-7--5/7--7-7--5/7-77--10-101010---|/

Guitar2
|--------------------------------------|\
|--------------------------------------| \
|--2/4--4-4--2/4--4-4--2/4-44--7-777---|  \  3x
|--------------------------------------|  /
|--------------------------------------| / 
|--------------------------------------|/                                         

                                 

Guitar1
|------------------------------------------|\
|------------------------------------------| \ 
|------------------------------------------|  \  1x
|--7/9--9-9--7/9--9-9--7/9-99--12----------|  /
|--7/9--9-9--7/9--9-9--7/9-99--12----------| /
|--5/7--7-7--5/7--7-7--5/7-77--10----------|/
Pony knows as Pony goes                                                           

                  
Guitar1
|----------------------------------2-------|
|----------------------------------2-------|
|----------------------------------2-------|
|--12--1212-11--1111--999--7---5---0-------|
|--12--1212-11--1111--999--7---5-----------|
|--10--1010-9---9-9---777--5---3-----------|



VERSE3: do verse1 lead and rhythm>>>
CHORUS: do chorus lead and rhythm>>>then...

BRIDGE2:
Guitar1
|------------------------------------------|\
|------------------------------------------| \ 
|------------------------------------------|  \  8x
|--7/9--9-9--7/9--9-9--7/9-99--12----------|  /
|--7/9--9-9--7/9--9-9--7/9-99--12----------| /
|--5/7--7-7--5/7--7-7--5/7-77--10----------|/
                                              
Guitar2
|--------------------------------------|\
|--------------------------------------| \
|--2/4--4-4--2/4--4-4--2/4-44--7-------|  \  8x
|--------------------------------------|  /
|--------------------------------------| / 
|--------------------------------------|/                                         

                                 

                                                                              
OUTRO: till fade>>>>>
Guitar2
|----------2---------------2---------------2---------------2---------|
|------2-----2---2-----2-----2---2-----2-----2---2-----2-----2---2---|
|----2---2-----2-----2---2-----2-----2---2-----2-----2---2-----2-----|
|--0-----------------------------------------------------------------|
|--------------------------------------------------------------------|
|--------------------------------------------------------------------|
                                                                              
then break
|--2---b-------|
|--3---r-------|
|--2---e-------|
|--0---a-------|
|------k-------|
|--------------|

END.


PONY (Yuzon,Jugo) by the Mongols

Intro

Verse1
 Pony she says
 She says she wants to walk
 Right by the side of the road
 Faces cars and trucks and vans and 
 trucks and vans
 Flashes them her most hopeful V-sign

Chorus
 We all deserve a little bit more

Verse2
 Pony she says
 She's got no place to go
 Knows no friends and knows no foes
 Crashes to the heart of you
 with pots and pans
 with pots and pans
 Flushes down a tablet for her sorrow

Bridge
 Pony knows as Pony goes

Verse3
 Pony she says
 She wants to see the show
 Laughs at my joke and buys some coke
 Reveals to me the history
 of girls and bands
 of girls and bands
 Changes her sheets for tomorrow                             

END.
            
Hard to play? Try these video lessons and learn fast. | Correct




comments powered by Disqus
↑ Back to top | Tablatures and chords are parodies/interpretations of the original songs. You may use it for private study, scholarship, research or language learning purposes only