» » »

The Mongols, Odd Even Tabs (ver.1)

Artists:  A B C D E F G H I J K L M N O P Q R S T U V W X Y Z # 

Odd Even Tabs (ver.1)

The Mongols Tabs
Rating:
0/5 (0 votes)
Odd Even lessons Tabs too difficult? Try these video lessons and learn fast
                Artist/Band: The Mongols

*Yung lead sa intro pati outro hindi ko makapa eh. Pero yung buo alam ko.

Intro: (plucking muna bago ito)

E|------------------------------------------|
B|------------------------------------------|
G|--------------7------------------7--------|
D|----5----9----7--------5----9----7--------|
A|----5----9----5--------5----9----5--------|
E|----3----7-------------3----7-------------|

Verse:

E|------------------------------------------|
B|------------------------------------------|
G|----------------7-------------------7-----|
D|----5-----9-----7------5-----9------7-----|
A|----5-----9-----5------5-----9------5-----|
E|----3-----7------------3-----7------------|
     Gusto mong dumaan, di ka napagbigyan

E|-----------------------------------------------|
B|-----------------------------------------------|
G|--------------7--------------------------7-----|
D|----5-----9---7-------------5-----9------7-----|
A|----5-----9---5-------------5-----9------5-----|
E|----3-----7-----------------3-----7------------|
     Ilang oras ang lumipas, di ka ba nababanas

E|-------------------------------------|
B|-------------------------------------|
G|-----5—--4---7-----5—--4---7---------|
D|-----5—--4---7-----5—--4---7---------|
A|-----3—--2---5-----3—--2---5---------|
E|-------------------------------------|

E|------------------------------------------|
B|------------------------------------------|
G|----------------7-------------------7-----|
D|----5-----9-----7------5-----9------7-----|
A|----5-----9-----5------5-----9------5-----|
E|----3-----7------------3-----7------------|
     Gusto mong lumabas, san ka ba madalas

E|------------------------------------------------|
B|------------------------------------------------|
G|--------------7---------------------------7-----|
D|----5-----9---7--------------5-----9------7-----|
A|----5-----9---5--------------5-----9------5-----|
E|----3-----7------------------3-----7------------|
     Ilang beses nang tumawag, nakikusap sa ulan

Chorus:

E|-----------------------------------------------|
B|-----------------------------------------------|
G|---5—--4---------7-----5—--4---------7---------|
D|---5—--4---------7-----5—--4---------7---------|
A|---3—--2---------5-----3—--2---------5---------|
E|-----------------------------------------------|
    Odd even ba ngayon, odd even ba ngayon

E|-----------------------------------------------|
B|-----------------------------------------------|
G|---5—--4---------7-----5—--4---------7---------|
D|---5—--4---------7-----5—--4---------7---------|
A|---3—--2---------5-----3—--2---------5---------|
E|-----------------------------------------------|
    Odd even ba ngayon, odd even ba ngayon


E|------------------------------------------|
B|------------------------------------------|
G|--5---4/5—-5---4/5----5---4-------7-------|
D|--5---4/5—-5---4/5----5---4-------7-------|
A|--3---2/3—-3---2/3----3---2-------5-------| 2x
E|------------------------------------------|
   Odd even, odd even, odd even ba ngayon

Verse 2:

E|-------------------------|
B|-------------------------|
G|---------------------7---|
D|---5-----------------7---|
A|---5-----------------5---|
E|---3---------------------|
    Nagyayang maglasing

E|-------------------------|
B|-------------------------|
G|---------------------7---|
D|---5-----------------7---|
A|---5-----------------5---|
E|---3---------------------|
      Di ka na magising

E|----------------------------------------------------------|
B|----------------------------------------------------------|
G|----------------7-----------------------------------7-----|
D|----5-----9-----7-------------5----------9----------7-----|
A|----5-----9-----5-------------5----------9----------5-----|
E|----3-----7---------------------3--------7----------------|
      Di na bale ang pasakalye, at meron lang itatanong

(repeat chorus)

Paki-rate...
            
Submit corrections

comments powered by Disqus
↑ Back to top | The Mongols Tabs for Odd Even. Lyrics for acoustic guitar and electric guitar. Tablatures and chords are parodies/interpretations of the original songs. You may use it for private study, scholarship, research or language learning purposes only