» » »

Keeper Tabs (ver.1)

Artists:  A B C D E F G H I J K L M N O P Q R S T U V W X Y Z # 

Keeper Tabs (ver.1)

The Mongols
Rating:
2/5 (1 vote)

Tabs too difficult? Try these video lessons and learn fast.
                Artist/Band: The Mongols

Intro: 

E|----------------------------------------|
B|----------------------------------------|
G|----------------------------------------| 
D|-----3/5-5-5-5--------------------------| 4x
A|-----3/5-5-5-5--------------------------|
E|-----1/3—3—3—3--------------------------|

Verse:

E|----------------------------------------|
B|----------------------------------------|
G|----------------------------------------| 
D|-----3/5-5-5-5--------------------------| 4x
A|-----3/5-5-5-5--------------------------|
E|-----1/3—3—3—3--------------------------|
   I just found a friend indeed...

E|-----------------------------------|
B|-----------------------------------|
G|-----------------------------------|
D|-----8-8-8-8-----------------------|
A|-----8-8-8-8-----------------------|
E|-----6-6-6-6-----------------------|

E|-----------------------------------|
B|-----------------------------------|
G|-----------------------------------|
D|-----5-5-5-5-----------------------| 
A|-----5-5-5-5-----------------------| 
E|-----3-3-3-3-----------------------|
    Anytime you want...

Chorus:

E|----------------------------------------|
B|----------------------------------------|
G|----------------------------------------| 
D|-----3/5-5-5-5--------------------------| 4x
A|-----3/5-5-5-5--------------------------|
E|-----1/3—3—3—3--------------------------|
  Cause this one's a keeper...

E|--------------------------------------------|
B|--------------------------------------------|
G|--------------------------------------------|
D|-----8-8-8-8------------------5-5-5-5-------|
A|-----8-8-8-8------------------5-5-5-5-------|
E|-----6-6-6-6------------------3-3-3-3-------|
   Cause it's all over, if it's all over...

E|-------------------------------------------------|
B|-------------------------------------------------|
G|-------------------------------------------------|
D|-----8-8-8-8-----------------5-5-5-5-------------|
A|-----8-8-8-8-----------------5-5-5-5-------------|
E|-----6-6-6-6-----------------3-3-3-3-------------|
   Just blame it on something, something, something

Verse 2: (Do verse chords)
If you think too much
Your mind can take you
Anywhere you want

Repeat Chorus

Adlib: (Di ko pa alam eh...)

(Do verse chords)
I just found a friend indeed
Just hold it down and you can leave
Anytime you want (4x)

Chorus:

E|--------------------------------------------------|
B|--------------------------------------------------|
G|--------------------------------------------------|
D|-----8-8-8-8----5-5-5-5-----8-8-8-8-----5-5-5-5---|
A|-----8-8-8-8----5-5-5-5-----8-8-8-8-----5-5-5-5---|
E|-----6-6-6-6----3-3-3-3-----6-6-6-6-----3-3-3-3---|
  Cause it's all over, just blame it on something

E|-------------------------------------------------------|
B|-------------------------------------------------------|
G|-------------------------------------------------------|
D|-----8-8-8-8-----------------5-5-5-5-------------------|
A|-----8-8-8-8-----------------5-5-5-5-------------------| (break)
E|-----6-6-6-6-----------------3-3-3-3-------------------|
 Just blame it on something, something, something, something, something
            
Tabs too difficult? Try these video lessons and learn fast.




comments powered by Disqus
↑ Back to top | Tablatures and chords are parodies/interpretations of the original songs. You may use it for private study, scholarship, research or language learning purposes only