>
 >
Bulakbol 3

Bulakbol 3 Guitar Tabs

The Mongols - Bulakbol 3 chords, tabs, tablatures, lyrics

Guitar lessons | Add/correct | Request | Top 50 tabs Artists:  A B C D E F G H I J K L M N O P Q R S T U V W X Y Z 0-9

Bulakbol 3 Guitar Tabs – The Mongols

CD, Sheet music, Poster

Do you like Bulakbol 3? Share with your friends now
Bass TabsTabsTabs v2Tabs v3Tabs v4


Guitar: with high distortion

Intro1: G#m-G (powerchords)
                 >>>>>>(4x) Verse: chords E-E/D#-D-A (powerchords)
-|------------------x----|---------------------|
-|------------------0----|---------------------|
-|------------------4v---|---------------------|
-|5-2-x-x-x-6-6-x-x-5v---|---2---6---5---4-----|
-|5-2-x-x-x-6-6-x-x-5v---|---2---6---5---4-----|
-|3-0-x-x-x-4-4-x-x-3v---|---0---4---3---2-----|
                                                                              
Verse: lead(distortion)
-|------------------------------------------------------------------|
-|------------------------------------------------------------------|
-|-9---9---9---9---8---8---8---8---7---7---7---7---6---6---6---6----|
-|---9---9---9---9---9---9---9---9---9---9---9---9---9---9---9---9--|
-|------------------------------------------------------------------|
-|------------------------------------------------------------------|
                                                                              
Chorus: F---  >>>>>(2x)             (1x)
-|-------------------|-----------------|
-|---------0--1-0----|-----------------|
-|-------0--------0--|---------0-------|
-|-----3-------------|-------3---------|
-|---3---------------|-----3-----------|
-|-1-----------------|---1-------------|
                                                                              

Intro2: Abm-G           (2x)
-|------7^7^7^--------------|
-|------7^7^7^--------------|
-|------7^7^7^--------------|
-|-6-----------6-6-x-x-5----|
-|-6-----------6-6-x-x-5----|
-|-4-0---------4-4-x-x-3----|
                                                                              

Solo: lead A-B-D-B (2x) *just figure the timing
-|-------------------|--------------------|--------------------|
-|-555-444-----------|-555-444------------|--------------------|
-|---------444444444-|---------444444444--|-777-666-2222222222-|
-|-------------------|--------------------|--------------------|
-|-------------------|--------------------|--------------------|
-|-------------------|--------------------|--------------------|
                                                                              
after the solo: the intro3: Abm-G
-|-----------------------------|
-|-------------------0---------|
-|-------------------4vvvv-444-|
-|-6---x-x-x-6-6-x-x-----------|
-|-6---x-x-x-6-6-x-x-----------|
-|-4-0-x-x-x-4-4-x-x-----------|
                                                                              
Outro: F chord
-|-------------|---------------|
-|-------------|---------------|
-|--5v--4v--0--|---------------|
-|-------------|---------------|  END.
-|-------------|---------------|
-|-------------|---------------|



Intro1:

Verse:

Walang hinihintay
Kundi ang pagsakay
Isang saglit na lang
Di na magbibilang

Kapag lumilingon
Biglang mawawala
Ako'y tumatalon
At siya'y tumutula


Chorus:

Lumilindol
Naghahabol
Hanggang kailan ka bang 

Intro2:

Verse:
Saan dinadala
Tinik sa iyong paa
Subalit datapwat
Biglang magkakalat

Kapag lumilingon
Biglang mawawala
Ako'y sinasabon
At siya'y bumubula

Chorus:

Lumilindol
Naghahabol
Hanggang kailan ka bang 

Adlib: (solo)

Intro3:

Verse:
Walang hinihintay 
Di na makasabay
Isang saglit na lang
Di na magbibilang

END.

*end with the F chord after the last verse with the lead thingy>>>>.
                                                                              
*thanks to the help of my co-band mates and bro Allan "chico" Brunio and Jason 

"tookie" Darum
 for the additional riffs..also Ben "spider" Brunio.

*thanks to ABZD..rocks!.





Comments


Popular The Mongols tabs & chords
Bulakbol Bass Tabs
Keeper Bass Tabs
Your Bushido Chords
Bakit Nga Ba Tabs
Bakit Nga Ba 1 Tabs
Bulakbol 1 Tabs
Bulakbol 2 Tabs
Irish Spring Tabs
Keeper Tabs
Your Bushido Ukulele


Song lyrics



↑ Back to top | Tablatures and chords are parodies/interpretations of the original songs. You may use it for private study, scholarship, research or language learning purposes only
© 2014 AZChords.com Contact us | Privacy policy | DMCA | Add/correct tabs | Request tabs | Top 50 tabs