>
 >
Bulakbol 1

Bulakbol 1 Guitar Tabs

The Mongols - Bulakbol 1 chords, tabs, tablatures, lyrics

Guitar lessons | Add/correct | Request | Top 50 tabs Artists:  A B C D E F G H I J K L M N O P Q R S T U V W X Y Z 0-9

Bulakbol 1 Guitar Tabs – The Mongols

CD, Sheet music, Poster

Do you like Bulakbol 1? Share with your friends now
Bass TabsTabsTabs v2Tabs v3Tabs v4
INTRO

           E                       G#m                     G
  -----------------x---x---x---x-----------------------------------|----------------|
B -----------------x---x---x---x-----------------------------------|----------------|
A -----------------x---x---x---x-----------------------------------|----------------|
R -5c------2-------x---x---x---x---6-------6---------------5-------|--5-5-5-5-5-5-5-|
1 -5c------2-------x---x---x---x---6-------6---------------5-------|--5-5-5-5-5-5-5-|
  -3c------0-------x---x---x---x---4-------4---------------3-------|--3-3-3-3-3-3-3-|
 
REPEAT BAR1 FOUR TIMES 


                                 ***Hint***
For Bar1 choke/bend the string downwards not in the conventional upward direction.  


STANZA1
  
   E                 G#m               G                 F#m
  -------0-----0---|-------0-----0---|-------0-----0---|-----------------|
B -------------0---|-----0-------0---|-----0-------0---|-----0-------0---|
A -----------------|-----------------|-----------------|-------2-----2---|
R -----2-----------|---2-------------|---2-------------|---2---2---------|
2 ---2-------------|-----------------|-----------------|-----------------|
  -0---------0-----|-4---------4-----|-3---------3-----|-2---------2-----| 
 Walang     hinihintay              kundi     ang pagsakay 

 
   
   E                 G#m               G                 F#m
  -------0-----0---|-------0-----0---|-------0-----0---|-----------------|
B -------------0---|-----0-------0---|-----0-------0---|-------0-----0---|
A -----------------|-----------------|-----------------|-----2-------2---|
R -----2-----------|---2-------------|---2-------------|---2-------------|
3 ---2-------------|-----------------|-----------------|-----------------|
  -0---------0-----|-4---------4-----|-3---------3-----|-2---------2-----|   
 Isang saglit na    lang            di na          magbibilang

 
   E                G#m              G                F#m  
  -----------------|----------------|----------------|----------------|
B -----------------|----------------|----------------|----------------|
A -9---9---9---9---|8---8---8---8---|7---7---7---7---|6---6---6---6---|
R ---9---9---9---9-|--9---9---9---9-|--9---9---9---9-|--9---9---9---9-|
4 -----------------|----------------|----------------|----------------|
  -----------------|----------------|----------------|----------------|  
 Kapag        lumilingon          biglang         mawawala
Ako'y         tumatalon         at sya'y        tumutula 
 

REFRAIN

  FM7
  ------------------|----------------|
B --------------0---|----------1-0---|
A --------0---------|--------------0-|
R ------3-----3-----|----------------|
5 ----3-------------|----------------|
  --1---------------|----------------|
Lumilindol 
Naghahabol


  FM7
  ------------------|
B --------------0---|
A --------0---------|
R ------3-----3-----|
6 ----3-------------|
  --1---------------|
Hanggang kailan ka bang bulakbol 



           E                       G#m                     G
  -----------------5H--5H--5H--5H----------------------------------|----------------|
B -----------------5H--5H--5H--5H----------------------------------|----------------|
A -----------------5H--5H--5H--5H----------------------------------|----------------|
R -5c------2-------5H--5H--5H--5H--6-------6---------------5-------|--5-5-5-5-5-5-5-|
7 -5c------2-------5H--5H--5H--5H--6-------6---------------5-------|--5-5-5-5-5-5-5-|
  -3c------0-------5H--5H--5H--5H--4-------4---------------3-------|--3-3-3-3-3-3-3-|

  
REPEAT BAR7 TWICE  


STANZA2 ( DO BAR2 BAR3 BAR4 BAR4)

Saan dinadala tinik sa iyong paa
Subalit dadapwat biglang magkakalat
Kapag lumilingon biglang mawawala
Ako'y sinasabon at sya'y bumubula


DO REFRAIN

DO BAR7 TWICE


GUITAR SOLO

   A                                 B
  -----------------|----------------|----------------|----------------|
B -----------------|----------------|----------------|----------------|
A -9-9-9-8-8-8-----|----------------|9-9-9-8-8-8-----|----------------|
R -------------9-9-|9-9-9-9-9-9-9-9-|------------9-9-|9-9-9-9-9-9-9-9-|
8 -----------------|----------------|----------------|----------------|
  -----------------|----------------|----------------|----------------|


   A                                 B
  -----------------|----------------|----------------|----------------|
B -----------------|----------------|----------------|----------------| REPEAT
A -7-7-7-6-6-6-----|----------------|9-9-9-8-8-8-----|----------------|   3X
R -------------7-7-|7-7-7-7-7-7-7-7-|------------9-9-|9-9-9-9-9-9-9-9-|
9 -----------------|----------------|----------------|----------------|
  -----------------|----------------|----------------|----------------|

  
  
  
DO BAR1 FOUR TIMES  
 

STANZA3


    E                 G#m               G                 F#m
   -------0---------|-------0---------|-------0---------|-----------------|
B  -----------------|-----0-----------|-----0-----------|-------0---------|
A  -----------------|-----------------|-----------------|-----2-----------|
R  -----2-----------|---2-------------|---2-------------|---2-------------|
10 ---2-------------|-----------------|-----------------|-----------------|
   -0---------------|-4---------------|-3---------------|-2---------------| 
Walang          hinihintay           di na           makasabay


     E             G#m            G                      G  F# D
   --------------|-------------|-----------|-----------------------|
B  --------------|-------------|-----------|-----------------------|
A  --1-----------|--4----------|--4--------|-----------------------|
R  --2-----------|--6----------|--5--------|-------------5--4--0---|
11 --2-----------|--6----------|--5--------|-------------5--4--0---|
   --0-----------|--4----------|--3--------|-------------3--2--x---|
  Isang saglit na lang di         na magbibilang.......
DO BAR4    
Kapag lumilingon biglang mawawala
Akoy sinasabon at syay bumubula



ENDING

    ----------------|
B   ------0-h-1-0---|
A   --------------0-|
R   ----------------|
12  ----------------|
    ----------------|





Comments


Popular The Mongols tabs & chords
Bulakbol Bass Tabs
Your Bushido Chords
Bakit Nga Ba Tabs
Bakit Nga Ba 1 Tabs
Bulakbol Tabs
Bulakbol 2 Tabs
Bulakbol 3 Tabs
Odd Even Tabs
Pony Tabs
Your Bushido Ukulele


Song lyrics



↑ Back to top | Tablatures and chords are parodies/interpretations of the original songs. You may use it for private study, scholarship, research or language learning purposes only
© 2014 AZChords.com Contact us | Privacy policy | DMCA | Add/correct tabs | Request tabs | Top 50 tabs