» » »

The Mongols, Bulakbol Bass tabs (ver.1)

Artists:  A B C D E F G H I J K L M N O P Q R S T U V W X Y Z # 

Bulakbol Bass tabs (ver.1)

The Mongols Tabs
 Rating:
4/5 (4 votes)
Bulakbol lessons Tabs too difficult? Try these video lessons and learn fast
1
                

Standard Tuning (E,A,D,G)
Cool

Intro
G-|----------------------|\  
D-|----------------------| \ repeat 4x
A-|----------------------| / 
E-|--4-0-xxx-4-4-x-3^^^--|/
                                                                              

Verse
G-|---------------------------------------|\
D-|---------------------------------------| \ repeat 4x
A-|--77777777-66666666-55555555-----------| /
E-|-----------------------------55555555--|/
                                                                              

Refrain
G-|----------------------------|\
D-|----------3-----x----3/0----| \ repeat 3x
A-|------3---------------------| /
E-|--1-------------------------|/
                                                                              
Bridge
G-|--------------------------------------------------------------------------|
D-|--------------------------------------------------------------------------|
A-|--------------------------------------------------------------------------|
E-|--5555555555555555-7777777777777777-101010101010101010101010101010--------|
                                                                              

-------------------|\
-------------------| \ repeat 2x
-------------------| /
-7777777777777777--|/        


*The Mongols Rock! 
*tnx abzd!
            
Submit corrections

comments powered by Disqus
↑ Back to top | The Mongols Bass for Bulakbol. Lyrics for acoustic guitar and electric guitar. 1 Tablatures and chords are parodies/interpretations of the original songs. You may use it for private study, scholarship, research or language learning purposes only