» » »

Bulakbol Tabs (ver.1)

Artists:  A B C D E F G H I J K L M N O P Q R S T U V W X Y Z # 

Bulakbol Tabs (ver.1)

The Mongols
Rating:
3/5 (2 votes)

Hard to play? Try these video lessons and learn fast.
                Artist/Band: The Mongols


/ = slide

Intro:

E|----------------------------------------------------|
B|----------------------------------------------------|
G|----------------------------------------------------|
D|----5/6/2—-xxxx—-6---5---------5/6/2—-xxxx—-6---5---| 2x
A|----5/6/2—-xxxx—-6---5---------5/6/2—-xxxx—-6---5---|
E|----3/4/0—-xxxx—-4---3---------3/4/0—-xxxx—-4---3---|

Verse:
     E        G#m      G          F#m
E|------------------------------------------------------|
B|------------------------------------------------------|
G|---1--------------------------------------------------|
D|---2---------6-------5-----------4--------------------|
A|---2---------6-------5-----------4--------------------|
E|-------------4-------3-----------2--------------------|
  Walang hinihintay, kundi ang pagsakay

     E        G#m      G          F#m
E|------------------------------------------------------|
B|------------------------------------------------------|
G|---1--------------------------------------------------|
D|---2--------------6-------5-----------4---------------|
A|---2--------------6-------5-----------4---------------|
E|------------------4-------3-----------2---------------|
   Isang saglit na lang, di na magbibilang

Refrain:

E|-----------------------------------------------------------------------|
B|-5---5---5---5-----4---4---4---4-----3---3---3---3----2---2---2---2----|
G|---4---4---4---4-----4---4---4---4-----4---4---4---4----4---4---4---4--|
D|-----------------------------------------------------------------------|
A|-----------------------------------------------------------------------|
E|-----------------------------------------------------------------------|
   Kapag lumilingon, biglang mawawala...

Chorus: (got this from other tabs)

E|-------------------------------------------------------------|
B|---------------0---1—-0-----------------------0---1—-0-------|
G|----------0--------------0---------------0--------------0----|
D|-------3-----3------------------------3-----3----------------|
A|-----3------------------------------3------------------------|
E|---1------------------------------1--------------------------|
    Lumilindol...                   Naghahabol...

E|-----------------------------------|
B|---------------0-------------------|
G|----------0------------------------|
D|-------3-----3---------------------|
A|-----3-----------------------------|
E|---1-------------------------------|
    Hanggang kailan ka bang bulakbol

Repeat intro

Verse 2: (Do verse chords)
Saan dinadala tinik sa yong paa
Subalit datapwat biglang maggagala

Repeat refrain
Repeat chorus

Adlib:

Guitar 1
E|----------------------------------------------------------------------------|
B|--555-444---333-222---555-444-7--333-222---555-444-7—-333-222---555-444-7---|
G|----------4---------2--------------------2--------------------2-------------|
D|----------------------------------------------------------------------------|
A|----------------------------------------------------------------------------|
E|----------------------------------------------------------------------------|

Guitar 2
E|----------------------------------------------------------------------------|
B|----------------------------------------------------------------------------|
G|----------------------------------------------------------------------------|
D|------7--------9--------------7--------9------------------------------------|
A|------7--------9--------------7--------9------------------------------------|
E|------5--------7--------------5--------7------------------------------------|

E|----------------------------------------------------|
B|----------------------------------------------------|
G|----------------------------------------------------|
D|----5/6/2—-xxxx—-6---5---------5/6/2—-xxxx—-6---5---| 4x
A|----5/6/2—-xxxx—-6---5---------5/6/2—-xxxx—-6---5---|
E|----3/4/0—-xxxx—-4---3---------3/4/0—-xxxx—-4---3---|


Bridge: (Strum these chords)
E-G#m-G-F#m (2x) them...

E|----------------------|
B|----------------------|
G|----------------------|
D|----5-4-0-------------|
A|----5-4-0-------------|
E|----3-2-0-------------|


  E          G#m   G          F#m
Kapag lumilingon biglang mawawala
  E          G#m   G          F#m
Ako'y sinasabon at siya'y bumubula

Outro:

E|-----------------------------------|
B|---------------0-------------------|
G|----------0------------------------|
D|-------3-----3---------------------|
A|-----3-----------------------------|
E|---1-------------------------------|


Paki-rate na lang...
            
Hard to play? Try these video lessons and learn fast. | Correct




comments powered by Disqus
↑ Back to top | Tablatures and chords are parodies/interpretations of the original songs. You may use it for private study, scholarship, research or language learning purposes only