>
 >
Bakit Nga Ba 1

Bakit Nga Ba 1 Guitar Tabs

The Mongols - Bakit Nga Ba 1 chords, tabs, tablatures, lyrics

Guitar lessons | Add/correct | Request | Top 50 tabs Artists:  A B C D E F G H I J K L M N O P Q R S T U V W X Y Z 0-9

Bakit Nga Ba 1 Guitar Tabs – The Mongols

CD, Sheet music, Poster

Do you like Bakit Nga Ba 1? Share with your friends now
TabsTabs v2


INTRO: E---
-|---------------------|
-|---------------------|
-|--9-9-9--999999---9--|
-|--9-9-9--999999-0-9--|  
-|--7-7-7--777777-0-7--|
-|--0-0-0--000000-0-0--|
                                                                              

VERSE: E-B
-|-----------------------------------------------------------------|
-|-----------------------------------------------------------------|
-|--9--------------------------------------------------------------|
-|--9--------------------------------------9-----------------------| <2x>
-|--7--------------------------------------9-----------------------|
-|-----------------------------------------7-----------------------|
    
Bakit nga ba nauso
Mga bagay na kay hirap isipin?
Bakit nga ba ang puso
Tumitibok kahit di mo man pilitin?


REFRAIN: A-E           
-|--------------------|---------------------|
-|--------------------|---------------------|
-|--------------------|--9-9-9--999999---9--|
-|--777777777777777---|--9-9-9--999999-0-9--|
-|--777777777777777---|--7-7-7--777777-0-7--|
-|--555555555555555---|--0-0-0--000000-0-0--|
                               
Bakit ba umaandar na kapag
Ako ay kakalipat lang?


VERSE2: E-B
-|-----------------------------------------------------------------|
-|-----------------------------------------------------------------|
-|--9--------------------------------------------------------------|
-|--9--------------------------------------9-----------------------| <2x>
-|--7--------------------------------------9-----------------------|
-|-----------------------------------------7-----------------------|

Bakit nga ba ang pusa
Tumatawid kahit bawal ang jaywalking?
Bakit kailangang basahin 
Mga balitang dinadala ng hangin?

REFRAIN2: A-E-E-E-E
-|--------------------|---------------------|---------------------|
-|--------------------|---------------------|---------------------|
-|--------------------|--9-9-9--999999---9--|--9-9-9--999999---9--|
-|--777777777777777---|--9-9-9--999999-0-9--|--9-9-9--999999-0-9--|
-|--777777777777777---|--7-7-7--777777-0-7--|--7-7-7--777777-0-7--|
-|--555555555555555---|--0-0-0--000000-0-0--|--0-0-0--000000-0-0--|
                                                                              

|---------------------|---------------------|
|---------------------|---------------------|
|--9-9-9--999999---9--|--9-9-9--999999---9--|
|--9-9-9--999999-0-9--|--9-9-9--999999-0-9--|
|--7-7-7--777777-0-7--|--7-7-7--777777-0-7--|
|--0-0-0--000000-0-0--|--0-0-0--000000-0-0--|
                                                                      
Bakit nga ba nagtatanong sa isang
Wala namang maisasagot?

Bakit nga ba?

BRIDGE:
-|---------------------|--------------------|
-|---------------------|--------------------|
-|---------------------|--------------------|
-|--11-11-11-11-11-11--|--9--9--9--9--9--9--|  
-|--11-11-11-11-11-11--|--9--9--9--9--9--9--|
-|--9--9--9--9--9--9---|--7--7--7--7--7--7--|
 
Masama bang magtanong?

                                                                             
then.... A
-|------------------------------------------|
-|------------------------------------------|
-|------------------------------------------|
-|--7--7--7--7--7--7--7--7--7--7--7--7--7---|
-|--7--7--7--7--7--7--7--7--7--7--7--7--7---|
-|--5--5--5--5--5--5--5--5--5--5--5--5--5---|
                                     

VERSE3: E-B
-|--------------------------------------------------------|
-|--------------------------------------------------------|
-|--9>>>--------------------------------------------------|
-|--9>>>--------------------------------------9>>>--------|
-|--7>>>--------------------------------------9>>>--------|
-|--0>>>--------------------------------------7>>>--------|
                             
Wala nang balak tapusin ang sinasabi-


REFRAIN3: A-E
-|----------------------------------|-------------------|
-|----------------------------------|-------------------|
-|----------------------------------|--9----------------|
-|--777777777777777777777777777777--|--9----------------|
-|--777777777777777777777777777777--|--7----------------|
-|--555555555555555555555555555555--|-------------------|
                                                                              
Bakit ba tumatalon sa tuwa
Kapag ikaw ay nandiyan na?

ADLIB: (chords) E------
-|-----------------------------|
-|-----------------------------|
-|--9-9-9-9-9-9-9-9-9-9>>>>>---|
-|--9-9-9-9-9-9-9-9-9-9>>>>>---|  
-|--7-7-7-7-7-7-7-7-7-7>>>>>---|
-|--0-0-0-0-0-0-0-0-0-0>>>>>---|
                          

OUTRO: A-E (3x)
-|----------------------------------|
-|----------------------------------|
-|----------------------------------| 
-|--777777777777777777777777777777--| 
-|--777777777777777777777777777777--|
-|--555555555555555555555555555555--|

-|-------------------|
-|-------------------|
-|--9----------------|          :)
-|--9----------------|
-|--7----------------|
-|-------------------|
                                                            
Bakit ba nagtatanong sa isang 
Di naman marunong sumagot?
Di naman ito sinasadya
Di ko lang alam kung bakit ba       

FADE>>>>>>>>>>>>>


END.                                                           

*u just listen to the song for the progresssion
*u just figure out d timing on the intro 
*the adlib guitar lead is still to come (i find it hard to figure out the lead) :) 
 so if any of u who knows the adlib lead please update 
*tnx
*tnx to the ABZD band...you rock!





Comments


Popular The Mongols tabs & chords
Keeper Bass Tabs
Teka Muna Chords
Your Bushido Chords
Bulakbol Tabs
Bulakbol 1 Tabs
Bulakbol 2 Tabs
Irish Spring Tabs
Odd Even Tabs
Wigout Tabs
Your Bushido Ukulele


Song lyrics



↑ Back to top | Tablatures and chords are parodies/interpretations of the original songs. You may use it for private study, scholarship, research or language learning purposes only
© 2014 AZChords.com Contact us | Privacy policy | DMCA | Add/correct tabs | Request tabs | Top 50 tabs