» » »

The Mint Chicks, Youre Just As Confused As I Am Tabs (ver.1)

Artists:  A B C D E F G H I J K L M N O P Q R S T U V W X Y Z # 

Youre Just As Confused As I Am Tabs (ver.1)

The Mint Chicks Tabs
Rating:
0/5 (0 votes)
Youre Just As Confused As I Am lessons Tabs too difficult? Try these video lessons and learn fast
                -------------------------------------------------------------------------------
              You're just as confused as I am - The Mint Chicks
-------------------------------------------------------------------------------

Tuning: Standard

Intro

e---------------|     
B---------------|x 8     
G---------4444--|     
D-6--5----4444--|     
A-6--5----2222--| 
E-4--3----------| 

Verse

e----------------------------------------|     
B----------------------------------------|x 2    
G-6-6-6-6--4-4-4-4---------------9-------|     
D-6-6-6-6--4-4-4-4----22--7--99--9--9----|     
A-4-4-4-4--2-2-2-2----22--7--99--7--9----| 
E---------------------00--5--77-----7----|
'you're just as confused....'

e-----------------------------|     
B-----------------------------|x 4     
G-----------------------------|     
D-7-77--6-66--4-44--2-22------|     
A-7-77--6-66--4-44--2-22------| 
E-5-55--4-44--2-22--0-00------|
'i can't get through to....'

e-----------------------------------------------------|     
B-----------------------------------------------------|     
G-----------------------------------------------------|     
D-4-44-4-4-44---7-77-7-7-77---9-99-9-9-99-9-99-9-9-99-|     
A-4-44-4-4-44---7-77-7-7-77---9-99-9-9-99-9-99-9-9-99-| 
E-2-22-2-2-22---5-55-5-5-55---7-77-7-7-77-7-77-7-7-77-|
'like you....'

e----------------------------------------|     
B----------------------------------------|x 2    
G-6-6-6-6--4-4-4-4---------------9-------|     
D-6-6-6-6--4-4-4-4----22--7--99--9--9----|     
A-4-4-4-4--2-2-2-2----22--7--99--7--9----| 
E---------------------00--5--77-----7----|
'you're just as confused....'

e-----------------------------|     
B-----------------------------|x 4     
G-----------------------------|     
D-7-77--6-66--4-44--2-22------|     
A-7-77--6-66--4-44--2-22------| 
E-5-55--4-44--2-22--0-00------|
'i can't get through to....'

e-----------------------------------------------------|     
B-----------------------------------------------------|     
G-----------------------------------------------------|     
D-4-44-4-4-44---7-77-7-5-77---9-99-9-9-99-9-99-9-9-99-|     
A-4-44-4-4-44---7-77-7-7-77---9-99-9-9-99-9-99-9-9-99-| 
E-2-22-2-2-22---5-55-5-5-55---7-77-7-7-77-7-77-7-7-77-|
'like you....'

Chorus
e---------------------------------|     
B---------------------------------|x 2    
G-9999--------------------9-------|     
D-9999-11-9----22--7--99--9--9----|     
A-7777-11-9----22--7--99--7--9----| 
E------9--7----00--5--77-----7----|
'kiss me with....'

e----------------------------------------|     
B----------------------------------------|    
G----------------------------------------|     
D-6666---------------------2--2--2--2----|     
A-4444-9999-7777-6644------2--2--2--2----| 
E------7777-5555-4422------0--0--0--0----|
'kiss me without fail....'

e---------------|     
B---------------|x 8     
G---------4444--|     
D-6--5----4444--|     
A-6--5----2222--| 
E-4--3----------|

Verse 2

e----------------------------------------|     
B----------------------------------------|x 2    
G-6-6-6-6--4-4-4-4---------------9-------|     
D-6-6-6-6--4-4-4-4----22--7--99--9--9----|     
A-4-4-4-4--2-2-2-2----22--7--99--7--9----| 
E---------------------00--5--77-----7----|
'you're just as confused....'

e-----------------------------|     
B-----------------------------|x 4     
G-----------------------------|     
D-7-77--6-66--4-44--2-22------|     
A-7-77--6-66--4-44--2-22------| 
E-5-55--4-44--2-22--0-00------|
'i can't get through to....'

e-----------------------------------------------------|     
B-----------------------------------------------------|     
G-----------------------------------------------------|     
D-4-44-4-4-44---7-77-7-7-77---9-99-9-9-99-9-99-9-9-99-|     
A-4-44-4-4-44---7-77-7-7-77---9-99-9-9-99-9-99-9-9-99-| 
E-2-22-2-2-22---5-55-5-5-55---7-77-7-7-77-7-77-7-7-77-|
'like you.... 


Outro
e---------------|     
B---------------|x 16     
G---------4444--|     
D-6--5----4444--|     
A-6--5----2222--| 
E-4--3----------| 
            
Submit corrections

comments powered by Disqus
↑ Back to top | The Mint Chicks Tabs for Youre Just As Confused As I Am. Lyrics for acoustic guitar and electric guitar. Tablatures and chords are parodies/interpretations of the original songs. You may use it for private study, scholarship, research or language learning purposes only