» » »

The Mint Chicks, Welcome To Nowhere Tabs (ver.1)

Artists:  A B C D E F G H I J K L M N O P Q R S T U V W X Y Z # 

Welcome To Nowhere Tabs (ver.1)

The Mint Chicks Tabs
 Rating:
4.2/5 (5 votes)
Welcome To Nowhere lessons Tabs too difficult? Try these video lessons and learn fast
                -------------------------------------------------------------------------------
-------------------------------------------------------------------------------

Tuning: Standard


GET OUT OF MY HOUSE!

verse

e----------------------| x8    
B--5--------3----------|     
G--6--------4----------|     
D--7--------5----------|     
A----------------------| these are the main chords.
E----------------------| not sure it's 100% but im sure it's a A then G chord.

e--------------|     
B--------------|     
G-77777777-----|     
D-77777777-----|     
A-55555555-----| 
E--------------| 
'i would like to spend some time'

e----------------------|     
B--5--------3----------|x8     
G--6--------4----------|     
D--7--------5----------|     
A----------------------| 
E----------------------| 

e--------------|     
B--------------|     
G-77777777-----|     
D-77777777-----|     
A-55555555-----| 
E--------------| 
'i would like to spend some time'

e----------------------|     
B--5--------3----------| x4   
G--6--------4----------|     
D--7--------5----------|     
A----------------------| 
E----------------------| 

e-------------|     
B-------------|     
G-------------|     
D-------------|     
A-33333333----| 
E-11111111----| 
'i come from nowhere' 

e----------------------|     
B--5--------3----------|x4     
G--6--------4----------|     
D--7--------5----------|     
A----------------------| 
E----------------------| 

e-------------|     
B-------------|     
G-------------|     
D-------------|     
A-33333333----| 
E-11111111----| 
'I COME FROM NOWHERE!' 

e----------------------|     
B--5--------3----------|     
G--6--------4----------|x4     
D--7--------5----------|     
A----------------------| 
E----------------------| 

e------------------------|     
B------------------------|     
G------------------------|     
D-55555555-33332222------|     
A-33333333-11110000------| 
E------------------------|

* Play these parts again as need *

e-----------------------------------------------------------------------------|     
B-----------------------------------------------------------------------------|     
G-----------------------------------------------------------------------------|     
D-----------------------------------------------------------------------------|     
A-----------------------------------------------------------------------------| 
E-5----5----5----5----5----5----5----5----5----5----5----5----5----5----5-----| 
Electronic bass beep interlude



e-1111111111111111111111111111111111111010101010101010101010101010110101010101010101010-|     
B---------------------------------------------------------------------------------------|     
G---------------------------------------------------------------------------------------|     
D---------------------------------------------------------------------------------------|     
A---------------------------------------------------------------------------------------| 
E---------------------------------------------------------------------------------------|
basically just strum the highest D# then D
            
Submit corrections

comments powered by Disqus
↑ Back to top | The Mint Chicks Tabs for Welcome To Nowhere. Lyrics for acoustic guitar and electric guitar. Tablatures and chords are parodies/interpretations of the original songs. You may use it for private study, scholarship, research or language learning purposes only