» » »

Opium Of The People Bass tabs (ver.1)

Artists:  A B C D E F G H I J K L M N O P Q R S T U V W X Y Z # 

Opium Of The People Bass tabs (ver.1)

The Mint Chicks
Rating:
0/5 (0 votes)

Hard to play? Try these video lessons and learn fast.
                -------------------------------------------------------------------------------
-------------------------------------------------------------------------------

Tuning: Standard

verse
e-----------------------------------------------------------|     
B-----------------------------------------------------------|     
G-----------------------------------------------------------|   
D--------------444444444------------------------------------|     
A--5------4-------------------------------------------------| 
E-----------------------------------------------------------|

     
G-----------------------------------------------------------|   
D--------------444444444------------------------------------|     
A--5------4-------------------------------------------------| 
E-----------------------------------------------------------|
     
G-----------------------------------------------------------|   
D--------------4444-----------------------------------------|     
A--5------4---------33333333--------------------------------| 
E-----------------------------------------------------------|

    
G-----------------------------------------------------------|   
D--------------444444444------------------------------------|     
A--5------4-------------------------------------------------| 
E-----------------------------------------------------------|

    
G-----------------------------------------------------------|   
D--------------444444444------------------------------------|     
A--5------4-------------------------------------------------| 
E-----------------------------------------------------------|

    
G-----------------------------------------------------------|   
D--------------4444-----------------------------------------|     
A--5------4---------33333333--------------------------------| 
E-----------------------------------------------------------|

CHORUS

     
G-----------------------------------------------------------|   
D-7---------------9-----------------------------------------|     
A---5---5---5-------7---7---7-----------9-------------------| x4
E-------------------------------------7---7---7---7---------|

Play verse again

Play Chorus again


Bridge
     
G------------------------------------------------------|     
D------------------------------------------------------|x2     
A---------------------2--2-----------------------------|
E-3-----3------3-3---------33333333333332222-----------| 



then play the chorus as needed
            
Hard to play? Try these video lessons and learn fast. | Correct




comments powered by Disqus
↑ Back to top | Tablatures and chords are parodies/interpretations of the original songs. You may use it for private study, scholarship, research or language learning purposes only