» » »

Turn My Back On You Tabs (ver.1)

Artists:  A B C D E F G H I J K L M N O P Q R S T U V W X Y Z # 

Turn My Back On You Tabs (ver.1)

The Mighty Boosh
Rating:
5/5 (2 votes)

Hard to play? Try these video lessons and learn fast.
                I'm submitting this as a regular tab too, for those of you who don't have Guitar Pro. 
this is my first tab, so please tell me if there's something I should shange.

Enjoy :)

E|------------------------------|
B|------------------------------|
G|--------------2--------2------|
D|--------------2------2-----2--| x2
A|-----------0-------------0----|
E|--2--3--4--------0-2----------|


E|-------------------------------------|-----|
B|--------------0-----0-----0h6-----0--|-----|
G|-------------------------------------|-----|
D|--------------3-----3-----3-------3--|-----|
A|--0--2--3--4-----------4------2h4----|--5--|
E|-----------------4-------------------|-----|

                                         ^
I know this doesn't look like a real ending, but the song stops there in the episode.
            
Hard to play? Try these video lessons and learn fast. | Correct




comments powered by Disqus
↑ Back to top | Tablatures and chords are parodies/interpretations of the original songs. You may use it for private study, scholarship, research or language learning purposes only