» » »

Nannageddon Tabs (ver.1)

Artists:  A B C D E F G H I J K L M N O P Q R S T U V W X Y Z # 

Nannageddon Tabs (ver.1)

The Mighty Boosh
Rating:
0/5 (0 votes)

Hard to play? Try these video lessons and learn fast.
                -------------------------------------------------------------------------------
                             NANAGEDDON - The Mighty Boosh
-------------------------------------------------------------------------------

Tuning: Standard (EADGBe)

I've tabbed both bass and guitar here:-

e|-------------------------------------|-----------------------------------|
B|-------------------------------------|-----------------------------------|
G|--5-5--7-----------5--7--------------|--5x7--557------557--557-----------|
D|---------5~~----5---------------5b6==|-----5----5--------5----5----------|
A|-------------------------------------|-----------------------------------|
E|---------------------------3b4r3-----|---------------------------3b4r3---|
 |                                                                         |
G|-------------------------------------|-----------------------------------|
D|-------------------------------------|-----------------------------------|
A|-------------------------------------|-----------------------------------|
E|--3-3---3-3-----6-6---0-0--3b4r3-----|--3-3---3-3-----6-6---0-0--3b4r3---|

                                        (ORIGINAL RIFF CONTINUES IN BACKGROUND)
e|-------------------------------------|--12------------13----------------|
B|-------------------------------------|--15b17====-----16b18===----------|
G|--5-5--7-----------5--7--------------|----------------------------------|
D|---------5~~----5---------------5b6==|----------------------------------|
A|-------------------------------------|----------------------------------|
E|---------------------------3b4r3-----|----------------------------------|
 |                                                                        |
G|-------------------------------------|----------------------------------|
D|-------------------------------------|----------------------------------|
A|-------------------------------------|----------------------------------|
E|--3-3---3-3-----6-6---0-0--3b4r3-----|--3-3---3-3-----6-6---0-0--3b4r3--|


    Na-Na-Geddon  Na-Na-Geddon-----------------------------------------|
e|----------------------------------|----------------------------------|
B|----------------------------------|----------------------------------|
G|--5x7--557------557--557----------|--5x7--557------557--557----------|
D|-----5----5--------5----5---------|-----5----5--------5----5---------|
A|----------------------------------|----------------------------------|
E|---------------------------3b4r3--|---------------------------3b4r3--|
 |                                                                     |
G|----------------------------------|----------------------------------|
D|----------------------------------|----------------------------------|
A|----------------------------------|----------------------------------|
E|--3-3---3-3-----6-6---0-0--3b4r3--|--3-3---3-3-----6-6---0-0--3b4r3--|

(ORIGINAL RIFF CONTINUES IN BACKGROUND)

e|--12------------13----------------|--12------------13--------|
B|--15b17====-----16b18===----------|--15b17====-----16b18===--|
G|----------------------------------|--------------------------|
D|----------------------------------|--------------------------|
A|----------------------------------|--------------------------|
E|----------------------------------|--------------------------|
 |                                                                     |
G|----------------------------------|----------------------------------|
D|----------------------------------|----------------------------------|
A|----------------------------------|----------------------------------|
E|--3-3-----3-3---6-6---0-0--3b4r3--|--3-3---3-3-----6-6---0-0--3b4r3--|



e|----------------------------------|----------------------------------|
B|----------------------------------|----------------------------------|
G|--5x7--557------557--557----------|--5x7--557------557--557----------|
D|-----5----5--------5----5---------|-----5----5--------5----5---------|
A|----------------------------------|----------------------------------|
E|---------------------------3b4r3--|---------------------------3b4r3--|
 |                                                                     |
G|----------------------------------|----------------------------------|
D|----------------------------------|----------------------------------|
A|----------------------------------|----------------------------------|
E|--3-3---3-3-----6-6---0-0--3b4r3--|--3-3---3-3-----6-6---0-0--3b4r3--|

(ORIGINAL RIFF CONTINUES IN BACKGROUND THROUGHOUT)
Gm
Blood on the walls, of London Town
Bb                E
Satan's evil in a nylon gown
Gm
Evil cakes,Fiery Lakes
Bb                         E
Nanageddon's coming with a demon in a wig
Gm
Evil cakes,Fiery Lakes
Bb                         E
Nanageddon's coming with a demon in a wig

The Thames is red, the moon is dead
Little Jimmy crying got a needle in his head

This is an outrage!
e|-------------------------------------|-----------------------------------|
B|-------------------------------------|-----------------------------------|
G|--5-5--7-----------5--7--------------|--5x7--557------557--557-----------|
D|---------5~~----5---------------5b6==|-----5----5--------5----5----------|
A|-------------------------------------|-----------------------------------|
E|---------------------------3b4r3-----|---------------------------3b4r3---|
 |                                                                         |
G|-------------------------------------|-----------------------------------|
D|-------------------------------------|-----------------------------------|
A|-------------------------------------|-----------------------------------|
E|--3-3---3-3-----6-6---0-0--3b4r3-----|--3-3---3-3-----6-6---0-0--3b4r3---|


Night time creatures
Aged beasters
Chasin' you down
Huntin' you down
Draggin' you down
Like an aged demon
Wrinkled evil
Sucking the life from the youthfull faces

The moon is scared, can't compare
Wrinkled evil in an aged night mare

Gm
Blood on the walls, of London Town
Bb                E
Satan's evil in a nylon gown
Gm
Evil cakes,Fiery Lakes
Bb                         E
Nanageddon's coming with a demon in her wake
Gm
Evil cakes,Fiery Lakes
Bb                         E
Nanageddon's coming with a demon in her wake

AND THATS IT! Bear in mind that the original riff is played throughout the lyrics and 
is accompanied by the screeching bits, I'm trusting that you can work out where these are.


| /  slide up
| \  slide down
| b  bend
| r  release
| =  hold
| h  hammer-on
| p  pull-off
| ~  vibrato
| v  tremelo
| +  harmonic
| x  Mute note
===============================================================================
            
Hard to play? Try these video lessons and learn fast. | Correct




comments powered by Disqus
↑ Back to top | Tablatures and chords are parodies/interpretations of the original songs. You may use it for private study, scholarship, research or language learning purposes only