» » »

The Mighty Boosh, Nanageddon Bass tabs (ver.1)

Artists:  A B C D E F G H I J K L M N O P Q R S T U V W X Y Z # 

Nanageddon Bass tabs (ver.1)

The Mighty Boosh Tabs
Rating:
0/5 (0 votes)
Nanageddon lessons Tabs too difficult? Try these video lessons and learn fast
                Standard Tuning: EADG

Intro:
G|----------------|
D|----------------|
A|----------------|
E|-33-33----66-00-|

Fast drum bit, "Nanageddon"
G|-----------------|
D|-----------------|
A|-----------------|
E|-3333333366660000

Pre Chorus: "Blood on the walls of london town..."
G|-----------------|
D|-----------------|
A|-----------------|
E|3----------------|

Chorus:
"Evils cakes, firey lakes, Nanngeddon come with a demon in a wig"
G|-------------------|
D|-------------------|
A|---------------7h9-|
E|-33333333666699----|

REST

"The Thames is red, the moon is dead, little jimmy crying got a needle in his head"
G|-------------------|
D|-------------------|
A|---------------7h9-|
E|-33333333666699----|

Bridge: "Nightime creatures..."
G|----------------|
D|----------------|
A|----------------|
E|-33-33----66-00-|

Build: "Wrinkled Evil.."
G|-----------------|
D|-----------------|
A|-----------------|
E|-3333333366660000

Repeat Pre Chorus & Chorus Until End


My first tab so email Any questions/corrections at:

And Long Live The Boosh :)
            

comments powered by Disqus
↑ Back to top | The Mighty Boosh Bass for Nanageddon. Lyrics for acoustic guitar and electric guitar. Tablatures and chords are parodies/interpretations of the original songs. You may use it for private study, scholarship, research or language learning purposes only